ISO-10303-21;
HEADER;
/* Generated by software containing ST-Developer
 * from STEP Tools, Inc. (www.steptools.com) 
 */

FILE_DESCRIPTION(
/* description */ (''),
/* implementation_level */ '2;1');

FILE_NAME(
/* name */ 'Valve support v7.step',
/* time_stamp */ '2024-07-23T17:40:21+02:00',
/* author */ (''),
/* organization */ (''),
/* preprocessor_version */ 'ST-DEVELOPER v20',
/* originating_system */ 'Autodesk Translation Framework v13.14.0.145',

/* authorisation */ '');

FILE_SCHEMA (('AUTOMOTIVE_DESIGN { 1 0 10303 214 3 1 1 }'));
ENDSEC;

DATA;
#10=MECHANICAL_DESIGN_GEOMETRIC_PRESENTATION_REPRESENTATION('',(#13),#501);
#11=SHAPE_REPRESENTATION_RELATIONSHIP('SRR','None',#508,#12);
#12=ADVANCED_BREP_SHAPE_REPRESENTATION('',(#14),#500);
#13=STYLED_ITEM('',(#517),#14);
#14=MANIFOLD_SOLID_BREP('Corps1',#241);
#15=CONICAL_SURFACE('',#280,8.5,1.09244389541624);
#16=B_SPLINE_CURVE_WITH_KNOTS('',3,(#384,#385,#386,#387,#388,#389,#390,
#391,#392,#393,#394,#395,#396,#397,#398,#399,#400,#401,#402,#403,#404,#405,
#406,#407,#408,#409),.UNSPECIFIED.,.F.,.F.,(4,2,2,2,2,2,2,2,2,2,2,2,4),
(0.,0.0378205581042638,0.0756411162085276,0.113460712288533,0.151280308368539,
0.189093172790562,0.226906037212585,0.264725754448546,0.302545471684506,
0.340365188920467,0.378184906156427,0.415997770578451,0.453810635000474),
 .UNSPECIFIED.);
#17=B_SPLINE_CURVE_WITH_KNOTS('',3,(#410,#411,#412,#413,#414,#415,#416,
#417,#418,#419),.UNSPECIFIED.,.F.,.F.,(4,2,2,2,4),(0.453810635000474,0.491630231080479,
0.529449827160485,0.567270385264749,0.605090943369012),.UNSPECIFIED.);
#18=B_SPLINE_CURVE_WITH_KNOTS('',3,(#433,#434,#435,#436,#437,#438,#439,
#440,#441,#442,#443,#444,#445,#446,#447,#448,#449,#450),.UNSPECIFIED.,.F.,
 .F.,(4,2,2,2,2,2,2,2,4),(0.226526958591964,0.283154759422346,0.339782560252729,
0.396413962267725,0.453045364282721,0.509676766297717,0.566308168312713,
0.622935969143095,0.679147680178239),.UNSPECIFIED.);
#19=B_SPLINE_CURVE_WITH_KNOTS('',3,(#452,#453,#454,#455,#456,#457,#458,
#459,#460,#461,#462,#463,#464,#465,#466,#467,#468,#469,#470),
 .UNSPECIFIED.,.F.,.F.,(4,2,2,2,3,2,2,2,4),(0.679563769973478,0.736195410559338,
0.792827051145199,0.84945888985532,0.906090728565442,0.962722567275563,
1.01935440598568,1.07598604657155,1.13261768715741),.UNSPECIFIED.);
#20=B_SPLINE_CURVE_WITH_KNOTS('',3,(#472,#473,#474,#475),.UNSPECIFIED.,
 .F.,.F.,(4,4),(0.679147680178239,0.679563769973478),.UNSPECIFIED.);
#21=FACE_BOUND('',#52,.T.);
#22=FACE_BOUND('',#54,.T.);
#23=FACE_BOUND('',#57,.T.);
#24=FACE_BOUND('',#59,.T.);
#25=FACE_BOUND('',#62,.T.);
#26=FACE_BOUND('',#67,.T.);
#27=FACE_BOUND('',#70,.T.);
#28=FACE_BOUND('',#72,.T.);
#29=PLANE('',#258);
#30=PLANE('',#260);
#31=PLANE('',#267);
#32=PLANE('',#270);
#33=PLANE('',#279);
#34=PLANE('',#285);
#35=FACE_OUTER_BOUND('',#50,.T.);
#36=FACE_OUTER_BOUND('',#51,.T.);
#37=FACE_OUTER_BOUND('',#53,.T.);
#38=FACE_OUTER_BOUND('',#55,.T.);
#39=FACE_OUTER_BOUND('',#56,.T.);
#40=FACE_OUTER_BOUND('',#58,.T.);
#41=FACE_OUTER_BOUND('',#60,.T.);
#42=FACE_OUTER_BOUND('',#61,.T.);
#43=FACE_OUTER_BOUND('',#63,.T.);
#44=FACE_OUTER_BOUND('',#64,.T.);
#45=FACE_OUTER_BOUND('',#65,.T.);
#46=FACE_OUTER_BOUND('',#66,.T.);
#47=FACE_OUTER_BOUND('',#68,.T.);
#48=FACE_OUTER_BOUND('',#69,.T.);
#49=FACE_OUTER_BOUND('',#71,.T.);
#50=EDGE_LOOP('',(#158,#159,#160,#161));
#51=EDGE_LOOP('',(#162));
#52=EDGE_LOOP('',(#163));
#53=EDGE_LOOP('',(#164));
#54=EDGE_LOOP('',(#165));
#55=EDGE_LOOP('',(#166,#167,#168,#169));
#56=EDGE_LOOP('',(#170,#171,#172,#173));
#57=EDGE_LOOP('',(#174,#175));
#58=EDGE_LOOP('',(#176));
#59=EDGE_LOOP('',(#177));
#60=EDGE_LOOP('',(#178,#179,#180,#181));
#61=EDGE_LOOP('',(#182));
#62=EDGE_LOOP('',(#183));
#63=EDGE_LOOP('',(#184,#185,#186,#187,#188,#189));
#64=EDGE_LOOP('',(#190,#191,#192,#193,#194));
#65=EDGE_LOOP('',(#195,#196,#197,#198,#199));
#66=EDGE_LOOP('',(#200));
#67=EDGE_LOOP('',(#201));
#68=EDGE_LOOP('',(#202,#203,#204,#205,#206,#207));
#69=EDGE_LOOP('',(#208,#209,#210,#211,#212));
#70=EDGE_LOOP('',(#213,#214,#215));
#71=EDGE_LOOP('',(#216));
#72=EDGE_LOOP('',(#217));
#73=LINE('',#364,#82);
#74=LINE('',#377,#83);
#75=LINE('',#380,#84);
#76=LINE('',#424,#85);
#77=LINE('',#471,#86);
#78=LINE('',#477,#87);
#79=LINE('',#482,#88);
#80=LINE('',#489,#89);
#81=LINE('',#495,#90);
#82=VECTOR('',#292,4.15);
#83=VECTOR('',#309,4.5);
#84=VECTOR('',#312,4.3);
#85=VECTOR('',#321,1.);
#86=VECTOR('',#330,1.5);
#87=VECTOR('',#333,1.);
#88=VECTOR('',#338,1.75);
#89=VECTOR('',#347,8.5);
#90=VECTOR('',#354,8.5);
#91=CIRCLE('',#256,4.15);
#92=CIRCLE('',#257,4.15);
#93=CIRCLE('',#259,1.);
#94=CIRCLE('',#261,4.5);
#95=CIRCLE('',#262,4.3);
#96=CIRCLE('',#264,4.5);
#97=CIRCLE('',#266,4.3);
#98=CIRCLE('',#269,1.);
#99=CIRCLE('',#271,1.5);
#100=CIRCLE('',#272,1.);
#101=CIRCLE('',#276,1.75);
#102=CIRCLE('',#277,1.75);
#103=CIRCLE('',#278,1.75);
#104=CIRCLE('',#281,8.5);
#105=CIRCLE('',#282,8.5);
#106=CIRCLE('',#284,8.5);
#107=VERTEX_POINT('',#361);
#108=VERTEX_POINT('',#363);
#109=VERTEX_POINT('',#367);
#110=VERTEX_POINT('',#370);
#111=VERTEX_POINT('',#372);
#112=VERTEX_POINT('',#375);
#113=VERTEX_POINT('',#379);
#114=VERTEX_POINT('',#382);
#115=VERTEX_POINT('',#383);
#116=VERTEX_POINT('',#422);
#117=VERTEX_POINT('',#426);
#118=VERTEX_POINT('',#428);
#119=VERTEX_POINT('',#431);
#120=VERTEX_POINT('',#432);
#121=VERTEX_POINT('',#451);
#122=VERTEX_POINT('',#479);
#123=VERTEX_POINT('',#481);
#124=VERTEX_POINT('',#483);
#125=VERTEX_POINT('',#488);
#126=VERTEX_POINT('',#490);
#127=VERTEX_POINT('',#494);
#128=EDGE_CURVE('',#107,#107,#91,.T.);
#129=EDGE_CURVE('',#107,#108,#73,.T.);
#130=EDGE_CURVE('',#108,#108,#92,.T.);
#131=EDGE_CURVE('',#109,#109,#93,.T.);
#132=EDGE_CURVE('',#110,#110,#94,.T.);
#133=EDGE_CURVE('',#111,#111,#95,.T.);
#134=EDGE_CURVE('',#112,#112,#96,.T.);
#135=EDGE_CURVE('',#112,#110,#74,.T.);
#136=EDGE_CURVE('',#111,#113,#75,.T.);
#137=EDGE_CURVE('',#113,#113,#97,.T.);
#138=EDGE_CURVE('',#114,#115,#16,.T.);
#139=EDGE_CURVE('',#115,#114,#17,.T.);
#140=EDGE_CURVE('',#116,#116,#98,.T.);
#141=EDGE_CURVE('',#116,#109,#76,.T.);
#142=EDGE_CURVE('',#117,#117,#99,.T.);
#143=EDGE_CURVE('',#118,#118,#100,.T.);
#144=EDGE_CURVE('',#119,#120,#18,.T.);
#145=EDGE_CURVE('',#121,#119,#19,.T.);
#146=EDGE_CURVE('',#121,#117,#77,.T.);
#147=EDGE_CURVE('',#120,#121,#20,.T.);
#148=EDGE_CURVE('',#118,#115,#78,.T.);
#149=EDGE_CURVE('',#122,#122,#101,.T.);
#150=EDGE_CURVE('',#122,#123,#79,.T.);
#151=EDGE_CURVE('',#124,#123,#102,.T.);
#152=EDGE_CURVE('',#123,#124,#103,.T.);
#153=EDGE_CURVE('',#124,#125,#80,.T.);
#154=EDGE_CURVE('',#125,#126,#104,.T.);
#155=EDGE_CURVE('',#126,#125,#105,.T.);
#156=EDGE_CURVE('',#126,#127,#81,.T.);
#157=EDGE_CURVE('',#127,#127,#106,.T.);
#158=ORIENTED_EDGE('',*,*,#128,.F.);
#159=ORIENTED_EDGE('',*,*,#129,.T.);
#160=ORIENTED_EDGE('',*,*,#130,.T.);
#161=ORIENTED_EDGE('',*,*,#129,.F.);
#162=ORIENTED_EDGE('',*,*,#130,.F.);
#163=ORIENTED_EDGE('',*,*,#131,.F.);
#164=ORIENTED_EDGE('',*,*,#132,.F.);
#165=ORIENTED_EDGE('',*,*,#133,.T.);
#166=ORIENTED_EDGE('',*,*,#134,.F.);
#167=ORIENTED_EDGE('',*,*,#135,.T.);
#168=ORIENTED_EDGE('',*,*,#132,.T.);
#169=ORIENTED_EDGE('',*,*,#135,.F.);
#170=ORIENTED_EDGE('',*,*,#133,.F.);
#171=ORIENTED_EDGE('',*,*,#136,.T.);
#172=ORIENTED_EDGE('',*,*,#137,.T.);
#173=ORIENTED_EDGE('',*,*,#136,.F.);
#174=ORIENTED_EDGE('',*,*,#138,.F.);
#175=ORIENTED_EDGE('',*,*,#139,.F.);
#176=ORIENTED_EDGE('',*,*,#137,.F.);
#177=ORIENTED_EDGE('',*,*,#128,.T.);
#178=ORIENTED_EDGE('',*,*,#140,.F.);
#179=ORIENTED_EDGE('',*,*,#141,.T.);
#180=ORIENTED_EDGE('',*,*,#131,.T.);
#181=ORIENTED_EDGE('',*,*,#141,.F.);
#182=ORIENTED_EDGE('',*,*,#142,.F.);
#183=ORIENTED_EDGE('',*,*,#143,.T.);
#184=ORIENTED_EDGE('',*,*,#144,.F.);
#185=ORIENTED_EDGE('',*,*,#145,.F.);
#186=ORIENTED_EDGE('',*,*,#146,.T.);
#187=ORIENTED_EDGE('',*,*,#142,.T.);
#188=ORIENTED_EDGE('',*,*,#146,.F.);
#189=ORIENTED_EDGE('',*,*,#147,.F.);
#190=ORIENTED_EDGE('',*,*,#143,.F.);
#191=ORIENTED_EDGE('',*,*,#148,.T.);
#192=ORIENTED_EDGE('',*,*,#139,.T.);
#193=ORIENTED_EDGE('',*,*,#138,.T.);
#194=ORIENTED_EDGE('',*,*,#148,.F.);
#195=ORIENTED_EDGE('',*,*,#149,.F.);
#196=ORIENTED_EDGE('',*,*,#150,.T.);
#197=ORIENTED_EDGE('',*,*,#151,.F.);
#198=ORIENTED_EDGE('',*,*,#152,.F.);
#199=ORIENTED_EDGE('',*,*,#150,.F.);
#200=ORIENTED_EDGE('',*,*,#149,.T.);
#201=ORIENTED_EDGE('',*,*,#140,.T.);
#202=ORIENTED_EDGE('',*,*,#151,.T.);
#203=ORIENTED_EDGE('',*,*,#152,.T.);
#204=ORIENTED_EDGE('',*,*,#153,.T.);
#205=ORIENTED_EDGE('',*,*,#154,.T.);
#206=ORIENTED_EDGE('',*,*,#155,.T.);
#207=ORIENTED_EDGE('',*,*,#153,.F.);
#208=ORIENTED_EDGE('',*,*,#155,.F.);
#209=ORIENTED_EDGE('',*,*,#156,.T.);
#210=ORIENTED_EDGE('',*,*,#157,.T.);
#211=ORIENTED_EDGE('',*,*,#156,.F.);
#212=ORIENTED_EDGE('',*,*,#154,.F.);
#213=ORIENTED_EDGE('',*,*,#144,.T.);
#214=ORIENTED_EDGE('',*,*,#147,.T.);
#215=ORIENTED_EDGE('',*,*,#145,.T.);
#216=ORIENTED_EDGE('',*,*,#157,.F.);
#217=ORIENTED_EDGE('',*,*,#134,.T.);
#218=CYLINDRICAL_SURFACE('',#255,4.15);
#219=CYLINDRICAL_SURFACE('',#263,4.5);
#220=CYLINDRICAL_SURFACE('',#265,4.3);
#221=CYLINDRICAL_SURFACE('',#268,1.);
#222=CYLINDRICAL_SURFACE('',#273,1.5);
#223=CYLINDRICAL_SURFACE('',#274,1.);
#224=CYLINDRICAL_SURFACE('',#275,1.75);
#225=CYLINDRICAL_SURFACE('',#283,8.5);
#226=ADVANCED_FACE('',(#35),#218,.F.);
#227=ADVANCED_FACE('',(#36,#21),#29,.F.);
#228=ADVANCED_FACE('',(#37,#22),#30,.F.);
#229=ADVANCED_FACE('',(#38),#219,.F.);
#230=ADVANCED_FACE('',(#39,#23),#220,.F.);
#231=ADVANCED_FACE('',(#40,#24),#31,.F.);
#232=ADVANCED_FACE('',(#41),#221,.F.);
#233=ADVANCED_FACE('',(#42,#25),#32,.F.);
#234=ADVANCED_FACE('',(#43),#222,.F.);
#235=ADVANCED_FACE('',(#44),#223,.F.);
#236=ADVANCED_FACE('',(#45),#224,.T.);
#237=ADVANCED_FACE('',(#46,#26),#33,.F.);
#238=ADVANCED_FACE('',(#47),#15,.T.);
#239=ADVANCED_FACE('',(#48,#27),#225,.T.);
#240=ADVANCED_FACE('',(#49,#28),#34,.F.);
#241=CLOSED_SHELL('',(#226,#227,#228,#229,#230,#231,#232,#233,#234,#235,
#236,#237,#238,#239,#240));
#242=DERIVED_UNIT_ELEMENT(#244,1.);
#243=DERIVED_UNIT_ELEMENT(#503,-3.);
#244=(
MASS_UNIT()
NAMED_UNIT(*)
SI_UNIT(.KILO.,.GRAM.)
);
#245=DERIVED_UNIT((#242,#243));
#246=MEASURE_REPRESENTATION_ITEM('density measure',
POSITIVE_RATIO_MEASURE(7850.),#245);
#247=PROPERTY_DEFINITION_REPRESENTATION(#252,#249);
#248=PROPERTY_DEFINITION_REPRESENTATION(#253,#250);
#249=REPRESENTATION('material name',(#251),#500);
#250=REPRESENTATION('density',(#246),#500);
#251=DESCRIPTIVE_REPRESENTATION_ITEM('Acier','Acier');
#252=PROPERTY_DEFINITION('material property','material name',#510);
#253=PROPERTY_DEFINITION('material property','density of part',#510);
#254=AXIS2_PLACEMENT_3D('',#359,#286,#287);
#255=AXIS2_PLACEMENT_3D('',#360,#288,#289);
#256=AXIS2_PLACEMENT_3D('',#362,#290,#291);
#257=AXIS2_PLACEMENT_3D('',#365,#293,#294);
#258=AXIS2_PLACEMENT_3D('',#366,#295,#296);
#259=AXIS2_PLACEMENT_3D('',#368,#297,#298);
#260=AXIS2_PLACEMENT_3D('',#369,#299,#300);
#261=AXIS2_PLACEMENT_3D('',#371,#301,#302);
#262=AXIS2_PLACEMENT_3D('',#373,#303,#304);
#263=AXIS2_PLACEMENT_3D('',#374,#305,#306);
#264=AXIS2_PLACEMENT_3D('',#376,#307,#308);
#265=AXIS2_PLACEMENT_3D('',#378,#310,#311);
#266=AXIS2_PLACEMENT_3D('',#381,#313,#314);
#267=AXIS2_PLACEMENT_3D('',#420,#315,#316);
#268=AXIS2_PLACEMENT_3D('',#421,#317,#318);
#269=AXIS2_PLACEMENT_3D('',#423,#319,#320);
#270=AXIS2_PLACEMENT_3D('',#425,#322,#323);
#271=AXIS2_PLACEMENT_3D('',#427,#324,#325);
#272=AXIS2_PLACEMENT_3D('',#429,#326,#327);
#273=AXIS2_PLACEMENT_3D('',#430,#328,#329);
#274=AXIS2_PLACEMENT_3D('',#476,#331,#332);
#275=AXIS2_PLACEMENT_3D('',#478,#334,#335);
#276=AXIS2_PLACEMENT_3D('',#480,#336,#337);
#277=AXIS2_PLACEMENT_3D('',#484,#339,#340);
#278=AXIS2_PLACEMENT_3D('',#485,#341,#342);
#279=AXIS2_PLACEMENT_3D('',#486,#343,#344);
#280=AXIS2_PLACEMENT_3D('',#487,#345,#346);
#281=AXIS2_PLACEMENT_3D('',#491,#348,#349);
#282=AXIS2_PLACEMENT_3D('',#492,#350,#351);
#283=AXIS2_PLACEMENT_3D('',#493,#352,#353);
#284=AXIS2_PLACEMENT_3D('',#496,#355,#356);
#285=AXIS2_PLACEMENT_3D('',#497,#357,#358);
#286=DIRECTION('axis',(0.,0.,1.));
#287=DIRECTION('refdir',(1.,0.,0.));
#288=DIRECTION('center_axis',(0.,0.,1.));
#289=DIRECTION('ref_axis',(-1.,0.,0.));
#290=DIRECTION('center_axis',(0.,0.,1.));
#291=DIRECTION('ref_axis',(-1.,0.,0.));
#292=DIRECTION('',(0.,0.,1.));
#293=DIRECTION('center_axis',(0.,0.,1.));
#294=DIRECTION('ref_axis',(-1.,0.,0.));
#295=DIRECTION('center_axis',(0.,0.,1.));
#296=DIRECTION('ref_axis',(-1.,0.,0.));
#297=DIRECTION('center_axis',(0.,0.,-1.));
#298=DIRECTION('ref_axis',(1.,0.,0.));
#299=DIRECTION('center_axis',(0.,0.,1.));
#300=DIRECTION('ref_axis',(-1.,0.,0.));
#301=DIRECTION('center_axis',(0.,0.,1.));
#302=DIRECTION('ref_axis',(-1.,0.,0.));
#303=DIRECTION('center_axis',(0.,0.,1.));
#304=DIRECTION('ref_axis',(-1.,0.,0.));
#305=DIRECTION('center_axis',(0.,0.,1.));
#306=DIRECTION('ref_axis',(-1.,0.,0.));
#307=DIRECTION('center_axis',(0.,0.,1.));
#308=DIRECTION('ref_axis',(-1.,0.,0.));
#309=DIRECTION('',(0.,0.,1.));
#310=DIRECTION('center_axis',(0.,0.,1.));
#311=DIRECTION('ref_axis',(-1.,0.,0.));
#312=DIRECTION('',(0.,0.,1.));
#313=DIRECTION('center_axis',(0.,0.,1.));
#314=DIRECTION('ref_axis',(-1.,0.,0.));
#315=DIRECTION('center_axis',(0.,0.,1.));
#316=DIRECTION('ref_axis',(-1.,0.,0.));
#317=DIRECTION('center_axis',(0.,0.,-1.));
#318=DIRECTION('ref_axis',(1.,0.,0.));
#319=DIRECTION('center_axis',(0.,0.,-1.));
#320=DIRECTION('ref_axis',(1.,0.,0.));
#321=DIRECTION('',(0.,0.,-1.));
#322=DIRECTION('center_axis',(0.,-1.,0.));
#323=DIRECTION('ref_axis',(0.,0.,1.));
#324=DIRECTION('center_axis',(0.,-1.,0.));
#325=DIRECTION('ref_axis',(0.,0.,1.));
#326=DIRECTION('center_axis',(0.,-1.,0.));
#327=DIRECTION('ref_axis',(0.,0.,1.));
#328=DIRECTION('center_axis',(0.,-1.,0.));
#329=DIRECTION('ref_axis',(0.,0.,1.));
#330=DIRECTION('',(0.,-1.,0.));
#331=DIRECTION('center_axis',(0.,-1.,0.));
#332=DIRECTION('ref_axis',(0.,0.,1.));
#333=DIRECTION('',(0.,-1.,0.));
#334=DIRECTION('center_axis',(0.,0.,1.));
#335=DIRECTION('ref_axis',(1.,0.,0.));
#336=DIRECTION('center_axis',(0.,0.,1.));
#337=DIRECTION('ref_axis',(1.,0.,0.));
#338=DIRECTION('',(0.,0.,-1.));
#339=DIRECTION('center_axis',(0.,0.,-1.));
#340=DIRECTION('ref_axis',(1.,0.,0.));
#341=DIRECTION('center_axis',(0.,0.,-1.));
#342=DIRECTION('ref_axis',(1.,0.,0.));
#343=DIRECTION('center_axis',(0.,0.,-1.));
#344=DIRECTION('ref_axis',(-1.,0.,0.));
#345=DIRECTION('center_axis',(0.,0.,-1.));
#346=DIRECTION('ref_axis',(-1.,0.,0.));
#347=DIRECTION('',(0.887754531448929,1.08718574536749E-16,-0.460317164455));
#348=DIRECTION('center_axis',(0.,0.,1.));
#349=DIRECTION('ref_axis',(1.,0.,0.));
#350=DIRECTION('center_axis',(0.,0.,1.));
#351=DIRECTION('ref_axis',(1.,0.,0.));
#352=DIRECTION('center_axis',(0.,0.,1.));
#353=DIRECTION('ref_axis',(1.,0.,0.));
#354=DIRECTION('',(0.,0.,-1.));
#355=DIRECTION('center_axis',(0.,0.,1.));
#356=DIRECTION('ref_axis',(1.,0.,0.));
#357=DIRECTION('center_axis',(0.,0.,1.));
#358=DIRECTION('ref_axis',(1.,0.,0.));
#359=CARTESIAN_POINT('',(0.,0.,0.));
#360=CARTESIAN_POINT('Origin',(0.010348036235271,-8.24551166927092E-18,
7.9));
#361=CARTESIAN_POINT('',(4.16034803623527,4.99982909976881E-16,6.3));
#362=CARTESIAN_POINT('Origin',(0.010348036235271,-8.24551166927092E-18,
6.3));
#363=CARTESIAN_POINT('',(4.16034803623527,4.99982909976881E-16,9.5));
#364=CARTESIAN_POINT('',(4.16034803623527,4.99982909976881E-16,7.9));
#365=CARTESIAN_POINT('Origin',(0.010348036235271,-8.24551166927092E-18,
9.5));
#366=CARTESIAN_POINT('Origin',(0.010348036235271,-8.24551166927092E-18,
9.5));
#367=CARTESIAN_POINT('',(-1.,1.22464679914735E-16,9.5));
#368=CARTESIAN_POINT('Origin',(0.,0.,9.5));
#369=CARTESIAN_POINT('Origin',(0.,0.,2.5));
#370=CARTESIAN_POINT('',(4.5,5.51091059616309E-16,2.5));
#371=CARTESIAN_POINT('Origin',(0.,0.,2.5));
#372=CARTESIAN_POINT('',(4.3,5.26598123633362E-16,2.5));
#373=CARTESIAN_POINT('Origin',(0.,0.,2.5));
#374=CARTESIAN_POINT('Origin',(0.,0.,1.25));
#375=CARTESIAN_POINT('',(4.5,5.51091059616309E-16,0.));
#376=CARTESIAN_POINT('Origin',(0.,0.,0.));
#377=CARTESIAN_POINT('',(4.5,5.51091059616309E-16,1.25));
#378=CARTESIAN_POINT('Origin',(0.,0.,3.15));
#379=CARTESIAN_POINT('',(4.3,5.26598123633362E-16,6.3));
#380=CARTESIAN_POINT('',(4.3,5.26598123633362E-16,3.15));
#381=CARTESIAN_POINT('Origin',(0.,0.,6.3));
#382=CARTESIAN_POINT('',(1.00416288224345,4.18110713877611,5.2));
#383=CARTESIAN_POINT('',(0.00416288224345249,4.29999798493109,4.2));
#384=CARTESIAN_POINT('Ctrl Pts',(1.00416288224345,4.18110713877611,5.2));
#385=CARTESIAN_POINT('Ctrl Pts',(1.00416288224345,4.18110713877611,5.32606852701421));
#386=CARTESIAN_POINT('Ctrl Pts',(0.978872930923544,4.18742713158935,5.46020752399046));
#387=CARTESIAN_POINT('Ctrl Pts',(0.876683031387473,4.21000771905,5.70643489346815));
#388=CARTESIAN_POINT('Ctrl Pts',(0.799807064329579,4.22591589681637,5.81856540903104));
#389=CARTESIAN_POINT('Ctrl Pts',(0.622766232548526,4.25561021674448,5.99561418251154));
#390=CARTESIAN_POINT('Ctrl Pts',(0.510628655151104,4.27136305033735,6.07250427900399));
#391=CARTESIAN_POINT('Ctrl Pts',(0.264378306220262,4.29364507632698,6.17470982400188));
#392=CARTESIAN_POINT('Ctrl Pts',(0.130228143433322,4.29987593956289,6.2));
#393=CARTESIAN_POINT('Ctrl Pts',(-0.121879940096991,4.30012000857595,6.2));
#394=CARTESIAN_POINT('Ctrl Pts',(-0.256019694351382,4.29415088302263,6.1747178826919));
#395=CARTESIAN_POINT('Ctrl Pts',(-0.502264402608534,4.27235396016154,6.07252582627898));
#396=CARTESIAN_POINT('Ctrl Pts',(-0.614406004021673,4.25682470774753,5.99564073884433));
#397=CARTESIAN_POINT('Ctrl Pts',(-0.79146638796275,4.22748568365851,5.81858822944468));
#398=CARTESIAN_POINT('Ctrl Pts',(-0.868351174458817,4.21173389143231,5.70644734504161));
#399=CARTESIAN_POINT('Ctrl Pts',(-0.970548347950818,4.18936416456502,5.46020690522384));
#400=CARTESIAN_POINT('Ctrl Pts',(-0.995837117756547,4.18309794708399,5.32606572411987));
#401=CARTESIAN_POINT('Ctrl Pts',(-0.995837117756547,4.18309794708399,5.07393427588013));
#402=CARTESIAN_POINT('Ctrl Pts',(-0.970548347950818,4.18936416456502,4.93979309477616));
#403=CARTESIAN_POINT('Ctrl Pts',(-0.868351174458817,4.21173389143231,4.69355265495839));
#404=CARTESIAN_POINT('Ctrl Pts',(-0.79146638796275,4.22748568365851,4.58141177055532));
#405=CARTESIAN_POINT('Ctrl Pts',(-0.614406004021673,4.25682470774753,4.40435926115566));
#406=CARTESIAN_POINT('Ctrl Pts',(-0.502264402608533,4.27235396016154,4.32747417372102));
#407=CARTESIAN_POINT('Ctrl Pts',(-0.256019694351382,4.29415088302263,4.2252821173081));
#408=CARTESIAN_POINT('Ctrl Pts',(-0.121879940096991,4.30012000857595,4.2));
#409=CARTESIAN_POINT('Ctrl Pts',(0.00416288224345238,4.29999798493109,4.2));
#410=CARTESIAN_POINT('Ctrl Pts',(0.00416288224345234,4.29999798493109,4.2));
#411=CARTESIAN_POINT('Ctrl Pts',(0.130228143433322,4.29987593956289,4.2));
#412=CARTESIAN_POINT('Ctrl Pts',(0.264378306220263,4.29364507632698,4.22529017599811));
#413=CARTESIAN_POINT('Ctrl Pts',(0.510628655151105,4.27136305033735,4.32749572099601));
#414=CARTESIAN_POINT('Ctrl Pts',(0.622766232548526,4.25561021674448,4.40438581748846));
#415=CARTESIAN_POINT('Ctrl Pts',(0.799807064329579,4.22591589681637,4.58143459096896));
#416=CARTESIAN_POINT('Ctrl Pts',(0.876683031387473,4.21000771905,4.69356510653185));
#417=CARTESIAN_POINT('Ctrl Pts',(0.978872930923544,4.18742713158935,4.93979247600954));
#418=CARTESIAN_POINT('Ctrl Pts',(1.00416288224345,4.18110713877611,5.07393147298579));
#419=CARTESIAN_POINT('Ctrl Pts',(1.00416288224345,4.18110713877611,5.2));
#420=CARTESIAN_POINT('Origin',(0.,0.,6.3));
#421=CARTESIAN_POINT('Origin',(0.,0.,13.5));
#422=CARTESIAN_POINT('',(-1.,1.22464679914735E-16,18.));
#423=CARTESIAN_POINT('Origin',(0.,0.,18.));
#424=CARTESIAN_POINT('',(-1.,1.22464679914735E-16,13.5));
#425=CARTESIAN_POINT('Origin',(0.00416288224345251,5.5,5.2));
#426=CARTESIAN_POINT('',(0.0041628822434527,5.5,3.7));
#427=CARTESIAN_POINT('Origin',(0.00416288224345251,5.5,5.2));
#428=CARTESIAN_POINT('',(0.00416288224345264,5.5,4.2));
#429=CARTESIAN_POINT('Origin',(0.00416288224345251,5.5,5.2));
#430=CARTESIAN_POINT('Origin',(0.00416288224345251,7.,5.2));
#431=CARTESIAN_POINT('',(0.00416288224345234,8.49999898061238,6.7));
#432=CARTESIAN_POINT('',(2.16840016967906E-18,8.5,3.70000577654065));
#433=CARTESIAN_POINT('Ctrl Pts',(0.00416288224345234,8.49999898061238,6.7));
#434=CARTESIAN_POINT('Ctrl Pts',(-0.184596431220302,8.50009142565809,6.7));
#435=CARTESIAN_POINT('Ctrl Pts',(-0.385673653488116,8.49326404129194,6.66219662224353));
#436=CARTESIAN_POINT('Ctrl Pts',(-0.755126660516855,8.46841555253267,6.50899612740956));
#437=CARTESIAN_POINT('Ctrl Pts',(-0.923534656232296,8.45074184709025,6.39362054186748));
#438=CARTESIAN_POINT('Ctrl Pts',(-1.18945032306895,8.41743216426379,6.12770940145391));
#439=CARTESIAN_POINT('Ctrl Pts',(-1.30482632159344,8.39961042418754,5.95930152570665));
#440=CARTESIAN_POINT('Ctrl Pts',(-1.45803018173373,8.37437610084649,5.58984983010026));
#441=CARTESIAN_POINT('Ctrl Pts',(-1.49583711775655,8.36734553589977,5.38877134004998));
#442=CARTESIAN_POINT('Ctrl Pts',(-1.49583711775655,8.36734553589977,5.01122865995001));
#443=CARTESIAN_POINT('Ctrl Pts',(-1.45803018173373,8.37437610084649,4.81015016989973));
#444=CARTESIAN_POINT('Ctrl Pts',(-1.30482632159344,8.39961042418754,4.44069847429335));
#445=CARTESIAN_POINT('Ctrl Pts',(-1.18945032306895,8.41743216426379,4.27229059854609));
#446=CARTESIAN_POINT('Ctrl Pts',(-0.923534656232296,8.45074184709025,4.00637945813252));
#447=CARTESIAN_POINT('Ctrl Pts',(-0.755126660516855,8.46841555253267,3.89100387259043));
#448=CARTESIAN_POINT('Ctrl Pts',(-0.387030987022094,8.49317275042025,3.73836622110895));
#449=CARTESIAN_POINT('Ctrl Pts',(-0.187550589032249,8.5,3.700526279223));
#450=CARTESIAN_POINT('Ctrl Pts',(3.46944695195361E-17,8.5,3.70000577654065));
#451=CARTESIAN_POINT('',(0.00416288224345249,8.49999898061238,3.7));
#452=CARTESIAN_POINT('Ctrl Pts',(0.00416288224345217,8.49999898061238,3.7));
#453=CARTESIAN_POINT('Ctrl Pts',(0.192934994890597,8.49990652929825,3.7));
#454=CARTESIAN_POINT('Ctrl Pts',(0.394018141090752,8.49288132001963,3.73780796468959));
#455=CARTESIAN_POINT('Ctrl Pts',(0.763474369614398,8.46766734703892,3.89101614962827));
#456=CARTESIAN_POINT('Ctrl Pts',(0.931880099921845,8.44982588875662,4.00639459824819));
#457=CARTESIAN_POINT('Ctrl Pts',(1.19778463000276,8.41625036323855,4.27230368023359));
#458=CARTESIAN_POINT('Ctrl Pts',(1.31315561748168,8.39831238891924,4.44070567270103));
#459=CARTESIAN_POINT('Ctrl Pts',(1.46635531448014,8.37292247852881,4.81014996405862));
#460=CARTESIAN_POINT('Ctrl Pts',(1.50416288224345,8.36585285692266,5.01122720429959));
#461=CARTESIAN_POINT('Ctrl Pts',(1.50416288224345,8.36585285692266,5.2));
#462=CARTESIAN_POINT('Ctrl Pts',(1.50416288224345,8.36585285692266,5.3887727957004));
#463=CARTESIAN_POINT('Ctrl Pts',(1.46635531448014,8.37292247852881,5.58985003594138));
#464=CARTESIAN_POINT('Ctrl Pts',(1.31315561748168,8.39831238891924,5.95929432729896));
#465=CARTESIAN_POINT('Ctrl Pts',(1.19778463000276,8.41625036323855,6.12769631976641));
#466=CARTESIAN_POINT('Ctrl Pts',(0.931880099921845,8.44982588875662,6.39360540175181));
#467=CARTESIAN_POINT('Ctrl Pts',(0.763474369614398,8.46766734703892,6.50898385037173));
#468=CARTESIAN_POINT('Ctrl Pts',(0.394018141090752,8.49288132001963,6.66219203531041));
#469=CARTESIAN_POINT('Ctrl Pts',(0.192934994890598,8.49990652929825,6.7));
#470=CARTESIAN_POINT('Ctrl Pts',(0.00416288224345255,8.49999898061238,6.7));
#471=CARTESIAN_POINT('',(0.0041628822434527,7.,3.7));
#472=CARTESIAN_POINT('Ctrl Pts',(6.27821846698493E-19,8.5,3.70000577654065));
#473=CARTESIAN_POINT('Ctrl Pts',(0.00138828519449607,8.5,3.70000192368062));
#474=CARTESIAN_POINT('Ctrl Pts',(0.00277591642565824,8.49999965988015,3.7));
#475=CARTESIAN_POINT('Ctrl Pts',(0.00416288224345222,8.49999898061238,3.7));
#476=CARTESIAN_POINT('Origin',(0.00416288224345251,6.,5.2));
#477=CARTESIAN_POINT('',(0.00416288224345264,6.,4.2));
#478=CARTESIAN_POINT('Origin',(0.,0.,12.));
#479=CARTESIAN_POINT('',(-1.75,-2.14313189850787E-16,18.));
#480=CARTESIAN_POINT('Origin',(0.,0.,18.));
#481=CARTESIAN_POINT('',(-1.75,-2.14313189850787E-16,12.));
#482=CARTESIAN_POINT('',(-1.75,-2.14313189850787E-16,12.));
#483=CARTESIAN_POINT('',(1.75,0.,12.));
#484=CARTESIAN_POINT('Origin',(0.,0.,12.));
#485=CARTESIAN_POINT('Origin',(0.,0.,12.));
#486=CARTESIAN_POINT('Origin',(0.,0.,18.));
#487=CARTESIAN_POINT('Origin',(0.,0.,8.5));
#488=CARTESIAN_POINT('',(8.5,1.04094977927525E-15,8.5));
#489=CARTESIAN_POINT('',(8.5,1.04094977927525E-15,8.5));
#490=CARTESIAN_POINT('',(-8.5,-1.04094977927525E-15,8.5));
#491=CARTESIAN_POINT('Origin',(0.,0.,8.5));
#492=CARTESIAN_POINT('Origin',(0.,0.,8.5));
#493=CARTESIAN_POINT('Origin',(0.,0.,0.));
#494=CARTESIAN_POINT('',(-8.5,-1.04094977927525E-15,0.));
#495=CARTESIAN_POINT('',(-8.5,-1.04094977927525E-15,0.));
#496=CARTESIAN_POINT('Origin',(0.,0.,0.));
#497=CARTESIAN_POINT('Origin',(0.,0.,0.));
#498=UNCERTAINTY_MEASURE_WITH_UNIT(LENGTH_MEASURE(0.01),#502,
'DISTANCE_ACCURACY_VALUE',
'Maximum model space distance between geometric entities at asserted c
onnectivities');
#499=UNCERTAINTY_MEASURE_WITH_UNIT(LENGTH_MEASURE(0.01),#502,
'DISTANCE_ACCURACY_VALUE',
'Maximum model space distance between geometric entities at asserted c
onnectivities');
#500=(
GEOMETRIC_REPRESENTATION_CONTEXT(3)
GLOBAL_UNCERTAINTY_ASSIGNED_CONTEXT((#498))
GLOBAL_UNIT_ASSIGNED_CONTEXT((#502,#504,#505))
REPRESENTATION_CONTEXT('','3D')
);
#501=(
GEOMETRIC_REPRESENTATION_CONTEXT(3)
GLOBAL_UNCERTAINTY_ASSIGNED_CONTEXT((#499))
GLOBAL_UNIT_ASSIGNED_CONTEXT((#502,#504,#505))
REPRESENTATION_CONTEXT('','3D')
);
#502=(
LENGTH_UNIT()
NAMED_UNIT(*)
SI_UNIT(.MILLI.,.METRE.)
);
#503=(
LENGTH_UNIT()
NAMED_UNIT(*)
SI_UNIT($,.METRE.)
);
#504=(
NAMED_UNIT(*)
PLANE_ANGLE_UNIT()
SI_UNIT($,.RADIAN.)
);
#505=(
NAMED_UNIT(*)
SI_UNIT($,.STERADIAN.)
SOLID_ANGLE_UNIT()
);
#506=SHAPE_DEFINITION_REPRESENTATION(#507,#508);
#507=PRODUCT_DEFINITION_SHAPE('',$,#510);
#508=SHAPE_REPRESENTATION('',(#254),#500);
#509=PRODUCT_DEFINITION_CONTEXT('part definition',#514,'design');
#510=PRODUCT_DEFINITION('Valve support','Valve support v7',#511,#509);
#511=PRODUCT_DEFINITION_FORMATION('',$,#516);
#512=PRODUCT_RELATED_PRODUCT_CATEGORY('Valve support v7',
'Valve support v7',(#516));
#513=APPLICATION_PROTOCOL_DEFINITION('international standard',
'automotive_design',2009,#514);
#514=APPLICATION_CONTEXT(
'Core Data for Automotive Mechanical Design Process');
#515=PRODUCT_CONTEXT('part definition',#514,'mechanical');
#516=PRODUCT('Valve support','Valve support v7',$,(#515));
#517=PRESENTATION_STYLE_ASSIGNMENT((#518));
#518=SURFACE_STYLE_USAGE(.BOTH.,#519);
#519=SURFACE_SIDE_STYLE('',(#520));
#520=SURFACE_STYLE_FILL_AREA(#521);
#521=FILL_AREA_STYLE('Acier - Satin\X\E9',(#522));
#522=FILL_AREA_STYLE_COLOUR('Acier - Satin\X\E9',#523);
#523=COLOUR_RGB('Acier - Satin\X\E9',0.627450980392157,0.627450980392157,
0.627450980392157);
ENDSEC;
END-ISO-10303-21;
