ISO-10303-21;
HEADER;
FILE_DESCRIPTION (( 'STEP AP214' ),
    '1' );
FILE_NAME ('AXE.STEP',
    '2023-08-28T19:55:44',
    ( '' ),
    ( '' ),
    'SwSTEP 2.0',
    'SolidWorks 2020',
    '' );
FILE_SCHEMA (( 'AUTOMOTIVE_DESIGN' ));
ENDSEC;

DATA;
#1 = SURFACE_SIDE_STYLE ('',( #163 ) ) ;
#2 = VERTEX_POINT ( 'NONE', #108 ) ;
#3 = EDGE_LOOP ( 'NONE', ( #39, #165 ) ) ;
#4 = APPLICATION_PROTOCOL_DEFINITION ( 'draft international standard', 'automotive_design', 1998, #84 ) ;
#5 = AXIS2_PLACEMENT_3D ( 'NONE', #94, #122, #124 ) ;
#6 = PLANE ( 'NONE',  #191 ) ;
#7 = PRODUCT_DEFINITION_CONTEXT ( 'detailed design', #98, 'design' ) ;
#8 = DIRECTION ( 'NONE',  ( -1.000000000000000000, 0.000000000000000000, 0.000000000000000000 ) ) ;
#9 = LINE ( 'NONE', #79, #177 ) ;
#10 = DIRECTION ( 'NONE',  ( -0.000000000000000000, -0.000000000000000000, -1.000000000000000000 ) ) ;
#11 = CARTESIAN_POINT ( 'NONE',  ( 1.500000000000000222, 0.000000000000000000, -7.150000000000000355 ) ) ;
#12 = CYLINDRICAL_SURFACE ( 'NONE', #134, 1.500000000000000222 ) ;
#13 =( NAMED_UNIT ( * ) PLANE_ANGLE_UNIT ( ) SI_UNIT ( $, .RADIAN. ) );
#14 = AXIS2_PLACEMENT_3D ( 'NONE', #25, #76, #8 ) ;
#15 = CARTESIAN_POINT ( 'NONE',  ( 0.000000000000000000, 0.000000000000000000, -7.150000000000000355 ) ) ;
#16 = ADVANCED_FACE ( 'NONE', ( #23 ), #6, .F. ) ;
#17 = APPLICATION_PROTOCOL_DEFINITION ( 'draft international standard', 'automotive_design', 1998, #98 ) ;
#18 =( GEOMETRIC_REPRESENTATION_CONTEXT ( 3 ) GLOBAL_UNCERTAINTY_ASSIGNED_CONTEXT ( ( #90 ) ) GLOBAL_UNIT_ASSIGNED_CONTEXT ( ( #207, #143, #51 ) ) REPRESENTATION_CONTEXT ( 'NONE', 'WORKASPACE' ) );
#19 = ORIENTED_EDGE ( 'NONE', *, *, #43, .F. ) ;
#20 = CONICAL_SURFACE ( 'NONE', #99, 1.500000000000000222, 0.7853981633974490562 ) ;
#21 = ORIENTED_EDGE ( 'NONE', *, *, #77, .F. ) ;
#22 = SURFACE_STYLE_USAGE ( .BOTH. , #1 ) ;
#23 = FACE_OUTER_BOUND ( 'NONE', #3, .T. ) ;
#24 = AXIS2_PLACEMENT_3D ( 'NONE', #197, #174, #95 ) ;
#25 = CARTESIAN_POINT ( 'NONE',  ( 0.000000000000000000, 0.000000000000000000, 7.450000000000000178 ) ) ;
#26 = EDGE_LOOP ( 'NONE', ( #168, #57, #73, #162 ) ) ;
#27 = CARTESIAN_POINT ( 'NONE',  ( -1.500000000000000222, 0.000000000000000000, -7.150000000000000355 ) ) ;
#28 = PRODUCT_DEFINITION ( 'UNKNOWN', '', #213, #7 ) ;
#29 = DIRECTION ( 'NONE',  ( 1.000000000000000000, 0.000000000000000000, -0.000000000000000000 ) ) ;
#30 = DIRECTION ( 'NONE',  ( -0.000000000000000000, -0.000000000000000000, -1.000000000000000000 ) ) ;
#31 =( LENGTH_UNIT ( ) NAMED_UNIT ( * ) SI_UNIT ( .MILLI., .METRE. ) );
#32 = CIRCLE ( 'NONE', #121, 1.500000000000000222 ) ;
#33 = DIRECTION ( 'NONE',  ( 1.000000000000000000, 0.000000000000000000, 0.000000000000000000 ) ) ;
#34 = FACE_OUTER_BOUND ( 'NONE', #54, .T. ) ;
#35 = EDGE_CURVE ( 'NONE', #210, #38, #80, .T. ) ;
#36 =( GEOMETRIC_REPRESENTATION_CONTEXT ( 3 ) GLOBAL_UNCERTAINTY_ASSIGNED_CONTEXT ( ( #184 ) ) GLOBAL_UNIT_ASSIGNED_CONTEXT ( ( #31, #13, #100 ) ) REPRESENTATION_CONTEXT ( 'NONE', 'WORKASPACE' ) );
#37 = ORIENTED_EDGE ( 'NONE', *, *, #190, .T. ) ;
#38 = VERTEX_POINT ( 'NONE', #105 ) ;
#39 = ORIENTED_EDGE ( 'NONE', *, *, #154, .T. ) ;
#40 = LINE ( 'NONE', #216, #224 ) ;
#41 = EDGE_CURVE ( 'NONE', #226, #38, #185, .T. ) ;
#42 = CONICAL_SURFACE ( 'NONE', #14, 1.199999999999999734, 0.7853981633974437271 ) ;
#43 = EDGE_CURVE ( 'NONE', #2, #210, #40, .T. ) ;
#44 = DIRECTION ( 'NONE',  ( -1.000000000000000000, 0.000000000000000000, 0.000000000000000000 ) ) ;
#45 = SURFACE_STYLE_USAGE ( .BOTH. , #201 ) ;
#46 = CARTESIAN_POINT ( 'NONE',  ( -1.500000000000000222, 1.836970198721030181E-16, -7.150000000000000355 ) ) ;
#47 = AXIS2_PLACEMENT_3D ( 'NONE', #15, #65, #33 ) ;
#48 = CARTESIAN_POINT ( 'NONE',  ( 0.000000000000000000, 0.000000000000000000, -7.150000000000000355 ) ) ;
#49 = DIRECTION ( 'NONE',  ( 1.000000000000000000, 0.000000000000000000, 0.000000000000000000 ) ) ;
#50 = STYLED_ITEM ( 'NONE', ( #161 ), #148 ) ;
#51 =( NAMED_UNIT ( * ) SI_UNIT ( $, .STERADIAN. ) SOLID_ANGLE_UNIT ( ) );
#52 = CLOSED_SHELL ( 'NONE', ( #101, #142, #205, #111, #74, #16, #151, #64 ) ) ;
#53 = PRODUCT_CONTEXT ( 'NONE', #84, 'mechanical' ) ;
#54 = EDGE_LOOP ( 'NONE', ( #211, #150, #37, #86 ) ) ;
#55 = CARTESIAN_POINT ( 'NONE',  ( 1.199999999999999734, 1.469576158976823553E-16, 7.450000000000000178 ) ) ;
#56 = ORIENTED_EDGE ( 'NONE', *, *, #35, .F. ) ;
#57 = ORIENTED_EDGE ( 'NONE', *, *, #97, .T. ) ;
#58 = VERTEX_POINT ( 'NONE', #27 ) ;
#59 = CARTESIAN_POINT ( 'NONE',  ( 0.000000000000000000, 0.000000000000000000, 7.450000000000000178 ) ) ;
#60 = CARTESIAN_POINT ( 'NONE',  ( 0.000000000000000000, 0.000000000000000000, 7.450000000000000178 ) ) ;
#61 = DIRECTION ( 'NONE',  ( -0.000000000000000000, -0.000000000000000000, -1.000000000000000000 ) ) ;
#62 = CARTESIAN_POINT ( 'NONE',  ( 1.199999999999999956, 0.000000000000000000, -7.450000000000000178 ) ) ;
#63 = UNCERTAINTY_MEASURE_WITH_UNIT (LENGTH_MEASURE( 1.000000000000000082E-05 ), #238, 'distance_accuracy_value', 'NONE');
#64 = ADVANCED_FACE ( 'NONE', ( #193 ), #42, .T. ) ;
#65 = DIRECTION ( 'NONE',  ( -0.000000000000000000, -0.000000000000000000, 1.000000000000000000 ) ) ;
#66 = AXIS2_PLACEMENT_3D ( 'NONE', #172, #78, #232 ) ;
#67 = MECHANICAL_DESIGN_GEOMETRIC_PRESENTATION_REPRESENTATION (  '', ( #136 ), #36 ) ;
#68 = ORIENTED_EDGE ( 'NONE', *, *, #41, .T. ) ;
#69 = ORIENTED_EDGE ( 'NONE', *, *, #137, .F. ) ;
#70 = ORIENTED_EDGE ( 'NONE', *, *, #169, .T. ) ;
#71 =( NAMED_UNIT ( * ) SI_UNIT ( $, .STERADIAN. ) SOLID_ANGLE_UNIT ( ) );
#72 = PRESENTATION_LAYER_ASSIGNMENT (  '', '', ( #50 ) ) ;
#73 = ORIENTED_EDGE ( 'NONE', *, *, #171, .T. ) ;
#74 = ADVANCED_FACE ( 'NONE', ( #113 ), #195, .T. ) ;
#75 = DIRECTION ( 'NONE',  ( 1.000000000000000000, 0.000000000000000000, -0.000000000000000000 ) ) ;
#76 = DIRECTION ( 'NONE',  ( 0.000000000000000000, 0.000000000000000000, -1.000000000000000000 ) ) ;
#77 = EDGE_CURVE ( 'NONE', #2, #226, #217, .T. ) ;
#78 = DIRECTION ( 'NONE',  ( 0.000000000000000000, 0.000000000000000000, -1.000000000000000000 ) ) ;
#79 = CARTESIAN_POINT ( 'NONE',  ( 1.500000000000000222, 1.836970198721030181E-16, 7.450000000000000178 ) ) ;
#80 = CIRCLE ( 'NONE', #126, 1.500000000000000222 ) ;
#81 = CARTESIAN_POINT ( 'NONE',  ( 0.000000000000000000, 0.000000000000000000, -7.150000000000000355 ) ) ;
#82 =( GEOMETRIC_REPRESENTATION_CONTEXT ( 3 ) GLOBAL_UNCERTAINTY_ASSIGNED_CONTEXT ( ( #63 ) ) GLOBAL_UNIT_ASSIGNED_CONTEXT ( ( #238, #222, #71 ) ) REPRESENTATION_CONTEXT ( 'NONE', 'WORKASPACE' ) );
#83 = CARTESIAN_POINT ( 'NONE',  ( 0.000000000000000000, 0.000000000000000000, 7.450000000000000178 ) ) ;
#84 = APPLICATION_CONTEXT ( 'automotive_design' ) ;
#85 = FILL_AREA_STYLE_COLOUR ( '', #215 ) ;
#86 = ORIENTED_EDGE ( 'NONE', *, *, #171, .F. ) ;
#87 = ORIENTED_EDGE ( 'NONE', *, *, #200, .T. ) ;
#88 = ORIENTED_EDGE ( 'NONE', *, *, #190, .F. ) ;
#89 = CARTESIAN_POINT ( 'NONE',  ( 0.000000000000000000, 0.000000000000000000, -7.450000000000000178 ) ) ;
#90 = UNCERTAINTY_MEASURE_WITH_UNIT (LENGTH_MEASURE( 1.000000000000000082E-05 ), #207, 'distance_accuracy_value', 'NONE');
#91 = DIRECTION ( 'NONE',  ( 1.000000000000000000, 0.000000000000000000, 0.000000000000000000 ) ) ;
#92 = DIRECTION ( 'NONE',  ( 0.000000000000000000, 0.000000000000000000, 1.000000000000000000 ) ) ;
#93 = COLOUR_RGB ( '',0.7921568627450980005, 0.8196078431372548767, 0.9333333333333333481 ) ;
#94 = CARTESIAN_POINT ( 'NONE',  ( 0.000000000000000000, 0.000000000000000000, -7.450000000000000178 ) ) ;
#95 = DIRECTION ( 'NONE',  ( 1.000000000000000000, 0.000000000000000000, 0.000000000000000000 ) ) ;
#96 = DIRECTION ( 'NONE',  ( -1.000000000000000000, 0.000000000000000000, 0.000000000000000000 ) ) ;
#97 = EDGE_CURVE ( 'NONE', #38, #210, #176, .T. ) ;
#98 = APPLICATION_CONTEXT ( 'automotive_design' ) ;
#99 = AXIS2_PLACEMENT_3D ( 'NONE', #48, #160, #223 ) ;
#100 =( NAMED_UNIT ( * ) SI_UNIT ( $, .STERADIAN. ) SOLID_ANGLE_UNIT ( ) );
#101 = ADVANCED_FACE ( 'NONE', ( #230 ), #192, .T. ) ;
#102 = CARTESIAN_POINT ( 'NONE',  ( -1.500000000000000222, 0.000000000000000000, 7.149999999999996803 ) ) ;
#103 = AXIS2_PLACEMENT_3D ( 'NONE', #59, #135, #44 ) ;
#104 = DIRECTION ( 'NONE',  ( -1.000000000000000000, 0.000000000000000000, 0.000000000000000000 ) ) ;
#105 = CARTESIAN_POINT ( 'NONE',  ( 1.500000000000000222, 1.836970198721030181E-16, 7.149999999999996803 ) ) ;
#106 = EDGE_LOOP ( 'NONE', ( #69, #229, #88, #228 ) ) ;
#107 = ORIENTED_EDGE ( 'NONE', *, *, #97, .F. ) ;
#108 = CARTESIAN_POINT ( 'NONE',  ( -1.199999999999999734, 0.000000000000000000, 7.450000000000000178 ) ) ;
#109 = ORIENTED_EDGE ( 'NONE', *, *, #77, .T. ) ;
#110 = DIRECTION ( 'NONE',  ( 1.000000000000000000, 0.000000000000000000, 0.000000000000000000 ) ) ;
#111 = ADVANCED_FACE ( 'NONE', ( #114 ), #233, .T. ) ;
#112 = EDGE_LOOP ( 'NONE', ( #189, #68, #56, #19 ) ) ;
#113 = FACE_OUTER_BOUND ( 'NONE', #170, .T. ) ;
#114 = FACE_OUTER_BOUND ( 'NONE', #26, .T. ) ;
#115 = AXIS2_PLACEMENT_3D ( 'NONE', #60, #118, #29 ) ;
#116 = VECTOR ( 'NONE', #120, 1000.000000000000000 ) ;
#117 = EDGE_CURVE ( 'NONE', #38, #167, #9, .T. ) ;
#118 = DIRECTION ( 'NONE',  ( 0.000000000000000000, 0.000000000000000000, 1.000000000000000000 ) ) ;
#119 = FACE_OUTER_BOUND ( 'NONE', #106, .T. ) ;
#120 = DIRECTION ( 'NONE',  ( -0.7071067811865480168, 8.659560562354939021E-17, 0.7071067811865470176 ) ) ;
#121 = AXIS2_PLACEMENT_3D ( 'NONE', #152, #212, #110 ) ;
#122 = DIRECTION ( 'NONE',  ( -0.000000000000000000, -0.000000000000000000, -1.000000000000000000 ) ) ;
#123 = CARTESIAN_POINT ( 'NONE',  ( 0.000000000000000000, 0.000000000000000000, -7.450000000000000178 ) ) ;
#124 = DIRECTION ( 'NONE',  ( 1.000000000000000000, 0.000000000000000000, 0.000000000000000000 ) ) ;
#125 = MECHANICAL_DESIGN_GEOMETRIC_PRESENTATION_REPRESENTATION (  '', ( #50 ), #18 ) ;
#126 = AXIS2_PLACEMENT_3D ( 'NONE', #182, #129, #206 ) ;
#127 = CIRCLE ( 'NONE', #235, 1.199999999999999734 ) ;
#128 = SHAPE_DEFINITION_REPRESENTATION ( #194, #148 ) ;
#129 = DIRECTION ( 'NONE',  ( 0.000000000000000000, 0.000000000000000000, -1.000000000000000000 ) ) ;
#130 = DIRECTION ( 'NONE',  ( 0.7071067811865441310, 8.659560562354892183E-17, -0.7071067811865507924 ) ) ;
#131 = EDGE_CURVE ( 'NONE', #58, #167, #32, .T. ) ;
#132 = CIRCLE ( 'NONE', #158, 1.199999999999999956 ) ;
#133 = ORIENTED_EDGE ( 'NONE', *, *, #237, .F. ) ;
#134 = AXIS2_PLACEMENT_3D ( 'NONE', #159, #61, #104 ) ;
#135 = DIRECTION ( 'NONE',  ( 0.000000000000000000, 0.000000000000000000, -1.000000000000000000 ) ) ;
#136 = STYLED_ITEM ( 'NONE', ( #156 ), #140 ) ;
#137 = EDGE_CURVE ( 'NONE', #145, #188, #173, .T. ) ;
#138 = SURFACE_STYLE_FILL_AREA ( #218 ) ;
#139 = CONICAL_SURFACE ( 'NONE', #47, 1.500000000000000222, 0.7853981633974490562 ) ;
#140 = MANIFOLD_SOLID_BREP ( 'Chamfer1', #52 ) ;
#141 = LINE ( 'NONE', #219, #209 ) ;
#142 = ADVANCED_FACE ( 'NONE', ( #119 ), #20, .T. ) ;
#143 =( NAMED_UNIT ( * ) PLANE_ANGLE_UNIT ( ) SI_UNIT ( $, .RADIAN. ) );
#144 = EDGE_LOOP ( 'NONE', ( #196, #21, #208, #107 ) ) ;
#145 = VERTEX_POINT ( 'NONE', #236 ) ;
#146 = ORIENTED_EDGE ( 'NONE', *, *, #131, .F. ) ;
#147 = PRODUCT ( 'AXE', 'AXE', '', ( #53 ) ) ;
#148 = ADVANCED_BREP_SHAPE_REPRESENTATION ( 'AXE', ( #140, #153 ), #82 ) ;
#149 = VECTOR ( 'NONE', #130, 1000.000000000000114 ) ;
#150 = ORIENTED_EDGE ( 'NONE', *, *, #117, .T. ) ;
#151 = ADVANCED_FACE ( 'NONE', ( #239 ), #139, .T. ) ;
#152 = CARTESIAN_POINT ( 'NONE',  ( 0.000000000000000000, 0.000000000000000000, -7.150000000000000355 ) ) ;
#153 = AXIS2_PLACEMENT_3D ( 'NONE', #183, #225, #91 ) ;
#154 = EDGE_CURVE ( 'NONE', #188, #145, #132, .T. ) ;
#155 = DIRECTION ( 'NONE',  ( 0.7071067811865480168, 0.000000000000000000, 0.7071067811865470176 ) ) ;
#156 = PRESENTATION_STYLE_ASSIGNMENT (( #45 ) ) ;
#157 = DIRECTION ( 'NONE',  ( 0.000000000000000000, 0.000000000000000000, 1.000000000000000000 ) ) ;
#158 = AXIS2_PLACEMENT_3D ( 'NONE', #123, #203, #204 ) ;
#159 = CARTESIAN_POINT ( 'NONE',  ( 0.000000000000000000, 0.000000000000000000, 7.450000000000000178 ) ) ;
#160 = DIRECTION ( 'NONE',  ( -0.000000000000000000, -0.000000000000000000, 1.000000000000000000 ) ) ;
#161 = PRESENTATION_STYLE_ASSIGNMENT (( #22 ) ) ;
#162 = ORIENTED_EDGE ( 'NONE', *, *, #131, .T. ) ;
#163 = SURFACE_STYLE_FILL_AREA ( #187 ) ;
#164 = PRODUCT_RELATED_PRODUCT_CATEGORY ( 'part', '', ( #147 ) ) ;
#165 = ORIENTED_EDGE ( 'NONE', *, *, #137, .T. ) ;
#166 = ORIENTED_EDGE ( 'NONE', *, *, #154, .F. ) ;
#167 = VERTEX_POINT ( 'NONE', #179 ) ;
#168 = ORIENTED_EDGE ( 'NONE', *, *, #117, .F. ) ;
#169 = EDGE_CURVE ( 'NONE', #188, #167, #199, .T. ) ;
#170 = EDGE_LOOP ( 'NONE', ( #109, #87 ) ) ;
#171 = EDGE_CURVE ( 'NONE', #210, #58, #141, .T. ) ;
#172 = CARTESIAN_POINT ( 'NONE',  ( 0.000000000000000000, 0.000000000000000000, 7.149999999999996803 ) ) ;
#173 = CIRCLE ( 'NONE', #5, 1.199999999999999956 ) ;
#174 = DIRECTION ( 'NONE',  ( 0.000000000000000000, 0.000000000000000000, 1.000000000000000000 ) ) ;
#175 = FILL_AREA_STYLE_COLOUR ( '', #93 ) ;
#176 = CIRCLE ( 'NONE', #66, 1.500000000000000222 ) ;
#177 = VECTOR ( 'NONE', #234, 1000.000000000000000 ) ;
#178 = CARTESIAN_POINT ( 'NONE',  ( 1.199999999999999734, 1.653273178848926620E-16, 7.450000000000000178 ) ) ;
#179 = CARTESIAN_POINT ( 'NONE',  ( 1.500000000000000222, 1.836970198721030181E-16, -7.150000000000000355 ) ) ;
#180 = AXIS2_PLACEMENT_3D ( 'NONE', #198, #30, #96 ) ;
#181 = LINE ( 'NONE', #46, #116 ) ;
#182 = CARTESIAN_POINT ( 'NONE',  ( 0.000000000000000000, 0.000000000000000000, 7.149999999999996803 ) ) ;
#183 = CARTESIAN_POINT ( 'NONE',  ( 0.000000000000000000, 0.000000000000000000, 0.000000000000000000 ) ) ;
#184 = UNCERTAINTY_MEASURE_WITH_UNIT (LENGTH_MEASURE( 1.000000000000000082E-05 ), #31, 'distance_accuracy_value', 'NONE');
#185 = LINE ( 'NONE', #55, #149 ) ;
#186 = PRESENTATION_LAYER_ASSIGNMENT (  '', '', ( #136 ) ) ;
#187 = FILL_AREA_STYLE ('',( #85 ) ) ;
#188 = VERTEX_POINT ( 'NONE', #62 ) ;
#189 = ORIENTED_EDGE ( 'NONE', *, *, #200, .F. ) ;
#190 = EDGE_CURVE ( 'NONE', #167, #58, #214, .T. ) ;
#191 = AXIS2_PLACEMENT_3D ( 'NONE', #89, #92, #75 ) ;
#192 = CONICAL_SURFACE ( 'NONE', #103, 1.199999999999999734, 0.7853981633974437271 ) ;
#193 = FACE_OUTER_BOUND ( 'NONE', #144, .T. ) ;
#194 = PRODUCT_DEFINITION_SHAPE ( 'NONE', 'NONE',  #28 ) ;
#195 = PLANE ( 'NONE',  #115 ) ;
#196 = ORIENTED_EDGE ( 'NONE', *, *, #41, .F. ) ;
#197 = CARTESIAN_POINT ( 'NONE',  ( 0.000000000000000000, 0.000000000000000000, 7.450000000000000178 ) ) ;
#198 = CARTESIAN_POINT ( 'NONE',  ( 0.000000000000000000, 0.000000000000000000, 7.450000000000000178 ) ) ;
#199 = LINE ( 'NONE', #11, #227 ) ;
#200 = EDGE_CURVE ( 'NONE', #226, #2, #127, .T. ) ;
#201 = SURFACE_SIDE_STYLE ('',( #138 ) ) ;
#202 = DIRECTION ( 'NONE',  ( 1.000000000000000000, 0.000000000000000000, 0.000000000000000000 ) ) ;
#203 = DIRECTION ( 'NONE',  ( -0.000000000000000000, -0.000000000000000000, -1.000000000000000000 ) ) ;
#204 = DIRECTION ( 'NONE',  ( 1.000000000000000000, 0.000000000000000000, 0.000000000000000000 ) ) ;
#205 = ADVANCED_FACE ( 'NONE', ( #34 ), #12, .T. ) ;
#206 = DIRECTION ( 'NONE',  ( 1.000000000000000000, 0.000000000000000000, 0.000000000000000000 ) ) ;
#207 =( LENGTH_UNIT ( ) NAMED_UNIT ( * ) SI_UNIT ( .MILLI., .METRE. ) );
#208 = ORIENTED_EDGE ( 'NONE', *, *, #43, .T. ) ;
#209 = VECTOR ( 'NONE', #10, 1000.000000000000000 ) ;
#210 = VERTEX_POINT ( 'NONE', #102 ) ;
#211 = ORIENTED_EDGE ( 'NONE', *, *, #35, .T. ) ;
#212 = DIRECTION ( 'NONE',  ( -0.000000000000000000, -0.000000000000000000, 1.000000000000000000 ) ) ;
#213 = PRODUCT_DEFINITION_FORMATION_WITH_SPECIFIED_SOURCE ( 'ANY', '', #147, .NOT_KNOWN. ) ;
#214 = CIRCLE ( 'NONE', #221, 1.500000000000000222 ) ;
#215 = COLOUR_RGB ( '',0.7921568627450980005, 0.8196078431372548767, 0.9333333333333333481 ) ;
#216 = CARTESIAN_POINT ( 'NONE',  ( -1.199999999999999734, 0.000000000000000000, 7.450000000000000178 ) ) ;
#217 = CIRCLE ( 'NONE', #24, 1.199999999999999734 ) ;
#218 = FILL_AREA_STYLE ('',( #175 ) ) ;
#219 = CARTESIAN_POINT ( 'NONE',  ( -1.500000000000000222, 0.000000000000000000, 7.450000000000000178 ) ) ;
#220 = DIRECTION ( 'NONE',  ( -0.000000000000000000, -0.000000000000000000, 1.000000000000000000 ) ) ;
#221 = AXIS2_PLACEMENT_3D ( 'NONE', #81, #220, #49 ) ;
#222 =( NAMED_UNIT ( * ) PLANE_ANGLE_UNIT ( ) SI_UNIT ( $, .RADIAN. ) );
#223 = DIRECTION ( 'NONE',  ( 1.000000000000000000, 0.000000000000000000, 0.000000000000000000 ) ) ;
#224 = VECTOR ( 'NONE', #231, 1000.000000000000114 ) ;
#225 = DIRECTION ( 'NONE',  ( 0.000000000000000000, 0.000000000000000000, 1.000000000000000000 ) ) ;
#226 = VERTEX_POINT ( 'NONE', #178 ) ;
#227 = VECTOR ( 'NONE', #155, 1000.000000000000000 ) ;
#228 = ORIENTED_EDGE ( 'NONE', *, *, #169, .F. ) ;
#229 = ORIENTED_EDGE ( 'NONE', *, *, #237, .T. ) ;
#230 = FACE_OUTER_BOUND ( 'NONE', #112, .T. ) ;
#231 = DIRECTION ( 'NONE',  ( -0.7071067811865441310, 0.000000000000000000, -0.7071067811865507924 ) ) ;
#232 = DIRECTION ( 'NONE',  ( 1.000000000000000000, 0.000000000000000000, 0.000000000000000000 ) ) ;
#233 = CYLINDRICAL_SURFACE ( 'NONE', #180, 1.500000000000000222 ) ;
#234 = DIRECTION ( 'NONE',  ( -0.000000000000000000, -0.000000000000000000, -1.000000000000000000 ) ) ;
#235 = AXIS2_PLACEMENT_3D ( 'NONE', #83, #157, #202 ) ;
#236 = CARTESIAN_POINT ( 'NONE',  ( -1.199999999999999956, 1.653273178848926867E-16, -7.450000000000000178 ) ) ;
#237 = EDGE_CURVE ( 'NONE', #145, #58, #181, .T. ) ;
#238 =( LENGTH_UNIT ( ) NAMED_UNIT ( * ) SI_UNIT ( .MILLI., .METRE. ) );
#239 = FACE_OUTER_BOUND ( 'NONE', #240, .T. ) ;
#240 = EDGE_LOOP ( 'NONE', ( #133, #166, #70, #146 ) ) ;
ENDSEC;
END-ISO-10303-21;
