ISO-10303-21;
HEADER;
FILE_DESCRIPTION(('CATIA V5 STEP Exchange'),'2;1');

FILE_NAME('D:\\AAA_piece_alcyon\\montage soupapes_moteur\\coupelle superieur de soupape\\coupelle superieur de soupape.stp','2024-01-15T15:42:45+00:00',('none'),('none'),'CATIA Version 5 Release 21 GA (IN-10)','CATIA V5 STEP AP203','none');

FILE_SCHEMA(('CONFIG_CONTROL_DESIGN'));

ENDSEC;
/* file written by CATIA V5R21 */
DATA;
#5=PRODUCT('coupelle superieur','','',(#2)) ;
#1=APPLICATION_CONTEXT('configuration controlled 3D design of mechanical parts and assemblies') ;
#14=PRODUCT_DEFINITION('',' ',#6,#3) ;
#16=SECURITY_CLASSIFICATION(' ',' ',#15) ;
#15=SECURITY_CLASSIFICATION_LEVEL('unclassified') ;
#47=CARTESIAN_POINT(' ',(0.,0.,0.)) ;
#52=CARTESIAN_POINT('Axis2P3D Location',(0.,0.,3.)) ;
#57=CARTESIAN_POINT('Line Origine',(4.31482984744,-7.89824305701,0.5)) ;
#61=CARTESIAN_POINT('Vertex',(4.31482984744,-7.89824305701,0.)) ;
#63=CARTESIAN_POINT('Vertex',(4.31482984744,-7.89824305701,1.)) ;
#66=CARTESIAN_POINT('Axis2P3D Location',(0.,0.,1.)) ;
#70=CARTESIAN_POINT('Vertex',(-4.31482984744,7.89824305701,1.)) ;
#73=CARTESIAN_POINT('Line Origine',(-4.31482984744,7.89824305701,0.5)) ;
#77=CARTESIAN_POINT('Vertex',(-4.31482984744,7.89824305701,0.)) ;
#80=CARTESIAN_POINT('Axis2P3D Location',(0.,0.,0.)) ;
#92=CARTESIAN_POINT('Axis2P3D Location',(0.,0.,1.)) ;
#97=CARTESIAN_POINT('Axis2P3D Location',(0.,0.,0.)) ;
#109=CARTESIAN_POINT('Axis2P3D Location',(0.,0.,1.)) ;
#114=CARTESIAN_POINT('Axis2P3D Location',(4.79425538604,-8.7758256189,1.)) ;
#118=CARTESIAN_POINT('Vertex',(4.79425538604,-8.7758256189,2.)) ;
#121=CARTESIAN_POINT('Axis2P3D Location',(0.,0.,2.)) ;
#125=CARTESIAN_POINT('Vertex',(-4.79425538604,8.7758256189,2.)) ;
#128=CARTESIAN_POINT('Axis2P3D Location',(-4.79425538604,8.7758256189,1.)) ;
#140=CARTESIAN_POINT('Axis2P3D Location',(0.,0.,2.)) ;
#152=CARTESIAN_POINT('Axis2P3D Location',(0.,0.,2.)) ;
#157=CARTESIAN_POINT('Axis2P3D Location',(6.47224477116,-11.8473645855,2.)) ;
#161=CARTESIAN_POINT('Vertex',(5.75310646325,-10.5309907427,2.)) ;
#163=CARTESIAN_POINT('Vertex',(6.47224477116,-11.8473645855,3.5)) ;
#166=CARTESIAN_POINT('Axis2P3D Location',(0.,0.,3.5)) ;
#170=CARTESIAN_POINT('Vertex',(-6.47224477116,11.8473645855,3.5)) ;
#173=CARTESIAN_POINT('Axis2P3D Location',(-6.47224477116,11.8473645855,2.)) ;
#177=CARTESIAN_POINT('Vertex',(-5.75310646325,10.5309907427,2.)) ;
#180=CARTESIAN_POINT('Axis2P3D Location',(0.,0.,2.)) ;
#192=CARTESIAN_POINT('Axis2P3D Location',(0.,0.,3.5)) ;
#197=CARTESIAN_POINT('Axis2P3D Location',(0.,0.,2.)) ;
#209=CARTESIAN_POINT('Axis2P3D Location',(0.,0.,3.)) ;
#214=CARTESIAN_POINT('Line Origine',(7.19138307906,-13.1637384284,4.25)) ;
#218=CARTESIAN_POINT('Vertex',(7.19138307906,-13.1637384284,3.5)) ;
#220=CARTESIAN_POINT('Vertex',(7.19138307906,-13.1637384284,5.)) ;
#223=CARTESIAN_POINT('Axis2P3D Location',(0.,0.,5.)) ;
#227=CARTESIAN_POINT('Vertex',(-7.19138307906,13.1637384284,5.)) ;
#230=CARTESIAN_POINT('Line Origine',(-7.19138307906,13.1637384284,4.25)) ;
#234=CARTESIAN_POINT('Vertex',(-7.19138307906,13.1637384284,3.5)) ;
#237=CARTESIAN_POINT('Axis2P3D Location',(0.,0.,3.5)) ;
#249=CARTESIAN_POINT('Axis2P3D Location',(0.,0.,5.)) ;
#254=CARTESIAN_POINT('Axis2P3D Location',(0.,0.,3.5)) ;
#266=CARTESIAN_POINT('Axis2P3D Location',(0.,0.,6.)) ;
#271=CARTESIAN_POINT('Line Origine',(6.95167030976,-12.7249471474,5.5)) ;
#275=CARTESIAN_POINT('Vertex',(6.71195754046,-12.2861558665,6.)) ;
#278=CARTESIAN_POINT('Axis2P3D Location',(0.,0.,6.)) ;
#282=CARTESIAN_POINT('Vertex',(-6.71195754046,12.2861558665,6.)) ;
#285=CARTESIAN_POINT('Line Origine',(-6.95167030976,12.7249471474,5.5)) ;
#297=CARTESIAN_POINT('Axis2P3D Location',(0.,0.,6.)) ;
#309=CARTESIAN_POINT('Axis2P3D Location',(0.,0.,8.881784197E-016)) ;
#314=CARTESIAN_POINT('Line Origine',(3.11626600093,-5.70428665229,3.)) ;
#318=CARTESIAN_POINT('Vertex',(3.59569153953,-6.58186921418,6.)) ;
#320=CARTESIAN_POINT('Vertex',(2.63684046232,-4.8267040904,8.881784197E-016)) ;
#323=CARTESIAN_POINT('Axis2P3D Location',(0.,0.,8.881784197E-016)) ;
#327=CARTESIAN_POINT('Vertex',(-2.63684046232,4.8267040904,8.881784197E-016)) ;
#330=CARTESIAN_POINT('Line Origine',(-3.11626600093,5.70428665229,3.)) ;
#334=CARTESIAN_POINT('Vertex',(-3.59569153953,6.58186921418,6.)) ;
#337=CARTESIAN_POINT('Axis2P3D Location',(0.,0.,6.)) ;
#349=CARTESIAN_POINT('Axis2P3D Location',(0.,0.,8.881784197E-016)) ;
#354=CARTESIAN_POINT('Axis2P3D Location',(0.,0.,6.)) ;
#366=CARTESIAN_POINT('Axis2P3D Location',(0.,5.5,0.)) ;
#380=CARTESIAN_POINT('Axis2P3D Location',(0.,10.,2.)) ;
#394=CARTESIAN_POINT('Axis2P3D Location',(0.,13.5,3.5)) ;
#408=CARTESIAN_POINT('Axis2P3D Location',(0.,14.,6.)) ;
#53=DIRECTION('Axis2P3D Direction',(0.,0.,1.)) ;
#54=DIRECTION('Axis2P3D XDirection',(-0.479425538604,0.87758256189,0.)) ;
#58=DIRECTION('Vector Direction',(0.,0.,1.)) ;
#67=DIRECTION('Axis2P3D Direction',(0.,0.,1.)) ;
#74=DIRECTION('Vector Direction',(0.,0.,1.)) ;
#81=DIRECTION('Axis2P3D Direction',(0.,0.,1.)) ;
#93=DIRECTION('Axis2P3D Direction',(0.,0.,1.)) ;
#98=DIRECTION('Axis2P3D Direction',(0.,0.,1.)) ;
#110=DIRECTION('Axis2P3D Direction',(0.,0.,1.)) ;
#111=DIRECTION('Axis2P3D XDirection',(-0.479425538604,0.87758256189,0.)) ;
#115=DIRECTION('Axis2P3D Direction',(-0.87758256189,-0.479425538604,0.)) ;
#122=DIRECTION('Axis2P3D Direction',(0.,0.,1.)) ;
#129=DIRECTION('Axis2P3D Direction',(0.87758256189,0.479425538604,-0.)) ;
#141=DIRECTION('Axis2P3D Direction',(0.,0.,1.)) ;
#153=DIRECTION('Axis2P3D Direction',(0.,0.,1.)) ;
#154=DIRECTION('Axis2P3D XDirection',(-0.479425538604,0.87758256189,0.)) ;
#158=DIRECTION('Axis2P3D Direction',(-0.87758256189,-0.479425538604,0.)) ;
#167=DIRECTION('Axis2P3D Direction',(0.,0.,1.)) ;
#174=DIRECTION('Axis2P3D Direction',(0.87758256189,0.479425538604,-0.)) ;
#181=DIRECTION('Axis2P3D Direction',(0.,0.,1.)) ;
#193=DIRECTION('Axis2P3D Direction',(0.,0.,1.)) ;
#198=DIRECTION('Axis2P3D Direction',(0.,0.,1.)) ;
#210=DIRECTION('Axis2P3D Direction',(0.,0.,1.)) ;
#211=DIRECTION('Axis2P3D XDirection',(-0.479425538604,0.87758256189,0.)) ;
#215=DIRECTION('Vector Direction',(0.,0.,1.)) ;
#224=DIRECTION('Axis2P3D Direction',(0.,0.,1.)) ;
#231=DIRECTION('Vector Direction',(0.,0.,1.)) ;
#238=DIRECTION('Axis2P3D Direction',(0.,0.,1.)) ;
#250=DIRECTION('Axis2P3D Direction',(0.,0.,1.)) ;
#255=DIRECTION('Axis2P3D Direction',(0.,0.,1.)) ;
#267=DIRECTION('Axis2P3D Direction',(-0.,-0.,-1.)) ;
#268=DIRECTION('Axis2P3D XDirection',(-0.479425538604,0.87758256189,0.)) ;
#272=DIRECTION('Vector Direction',(0.339005049421,-0.620544580564,-0.707106781187)) ;
#279=DIRECTION('Axis2P3D Direction',(0.,0.,-1.)) ;
#286=DIRECTION('Vector Direction',(-0.339005049421,0.620544580564,-0.707106781187)) ;
#298=DIRECTION('Axis2P3D Direction',(0.,0.,-1.)) ;
#310=DIRECTION('Axis2P3D Direction',(0.,0.,1.)) ;
#311=DIRECTION('Axis2P3D XDirection',(-0.479425538604,0.87758256189,0.)) ;
#315=DIRECTION('Vector Direction',(0.151607667044,-0.277515973042,0.948683298051)) ;
#324=DIRECTION('Axis2P3D Direction',(0.,0.,1.)) ;
#331=DIRECTION('Vector Direction',(-0.151607667044,0.277515973042,0.948683298051)) ;
#338=DIRECTION('Axis2P3D Direction',(0.,0.,1.)) ;
#350=DIRECTION('Axis2P3D Direction',(0.,0.,1.)) ;
#355=DIRECTION('Axis2P3D Direction',(0.,0.,1.)) ;
#367=DIRECTION('Axis2P3D Direction',(0.,0.,1.)) ;
#368=DIRECTION('Axis2P3D XDirection',(1.,0.,0.)) ;
#381=DIRECTION('Axis2P3D Direction',(0.,0.,1.)) ;
#382=DIRECTION('Axis2P3D XDirection',(1.,0.,0.)) ;
#395=DIRECTION('Axis2P3D Direction',(0.,0.,1.)) ;
#396=DIRECTION('Axis2P3D XDirection',(1.,0.,0.)) ;
#409=DIRECTION('Axis2P3D Direction',(0.,0.,1.)) ;
#410=DIRECTION('Axis2P3D XDirection',(1.,0.,0.)) ;
#48=AXIS2_PLACEMENT_3D(' ',#47,$,$) ;
#55=AXIS2_PLACEMENT_3D('Cylinder Axis2P3D',#52,#53,#54) ;
#68=AXIS2_PLACEMENT_3D('Circle Axis2P3D',#66,#67,$) ;
#82=AXIS2_PLACEMENT_3D('Circle Axis2P3D',#80,#81,$) ;
#94=AXIS2_PLACEMENT_3D('Circle Axis2P3D',#92,#93,$) ;
#99=AXIS2_PLACEMENT_3D('Circle Axis2P3D',#97,#98,$) ;
#112=AXIS2_PLACEMENT_3D('Torus Axis2P3D',#109,#110,#111) ;
#116=AXIS2_PLACEMENT_3D('Circle Axis2P3D',#114,#115,$) ;
#123=AXIS2_PLACEMENT_3D('Circle Axis2P3D',#121,#122,$) ;
#130=AXIS2_PLACEMENT_3D('Circle Axis2P3D',#128,#129,$) ;
#142=AXIS2_PLACEMENT_3D('Circle Axis2P3D',#140,#141,$) ;
#155=AXIS2_PLACEMENT_3D('Torus Axis2P3D',#152,#153,#154) ;
#159=AXIS2_PLACEMENT_3D('Circle Axis2P3D',#157,#158,$) ;
#168=AXIS2_PLACEMENT_3D('Circle Axis2P3D',#166,#167,$) ;
#175=AXIS2_PLACEMENT_3D('Circle Axis2P3D',#173,#174,$) ;
#182=AXIS2_PLACEMENT_3D('Circle Axis2P3D',#180,#181,$) ;
#194=AXIS2_PLACEMENT_3D('Circle Axis2P3D',#192,#193,$) ;
#199=AXIS2_PLACEMENT_3D('Circle Axis2P3D',#197,#198,$) ;
#212=AXIS2_PLACEMENT_3D('Cylinder Axis2P3D',#209,#210,#211) ;
#225=AXIS2_PLACEMENT_3D('Circle Axis2P3D',#223,#224,$) ;
#239=AXIS2_PLACEMENT_3D('Circle Axis2P3D',#237,#238,$) ;
#251=AXIS2_PLACEMENT_3D('Circle Axis2P3D',#249,#250,$) ;
#256=AXIS2_PLACEMENT_3D('Circle Axis2P3D',#254,#255,$) ;
#269=AXIS2_PLACEMENT_3D('Cone Axis2P3D',#266,#267,#268) ;
#280=AXIS2_PLACEMENT_3D('Circle Axis2P3D',#278,#279,$) ;
#299=AXIS2_PLACEMENT_3D('Circle Axis2P3D',#297,#298,$) ;
#312=AXIS2_PLACEMENT_3D('Cone Axis2P3D',#309,#310,#311) ;
#325=AXIS2_PLACEMENT_3D('Circle Axis2P3D',#323,#324,$) ;
#339=AXIS2_PLACEMENT_3D('Circle Axis2P3D',#337,#338,$) ;
#351=AXIS2_PLACEMENT_3D('Circle Axis2P3D',#349,#350,$) ;
#356=AXIS2_PLACEMENT_3D('Circle Axis2P3D',#354,#355,$) ;
#369=AXIS2_PLACEMENT_3D('Plane Axis2P3D',#366,#367,#368) ;
#383=AXIS2_PLACEMENT_3D('Plane Axis2P3D',#380,#381,#382) ;
#397=AXIS2_PLACEMENT_3D('Plane Axis2P3D',#394,#395,#396) ;
#411=AXIS2_PLACEMENT_3D('Plane Axis2P3D',#408,#409,#410) ;
#40=PRODUCT_DEFINITION_SHAPE(' ',' ',#14) ;
#31=APPROVAL_PERSON_ORGANIZATION(#25,#21,#19) ;
#25=PERSON_AND_ORGANIZATION(#22,#23) ;
#22=PERSON(' ',' ',' ',$,$,$) ;
#23=ORGANIZATION(' ',' ',' ') ;
#21=APPROVAL(#20,' ') ;
#20=APPROVAL_STATUS('not_yet_approved') ;
#19=APPROVAL_ROLE('APPROVER') ;
#13=DATE_AND_TIME(#11,#12) ;
#12=LOCAL_TIME(16,42,45.,#10) ;
#10=COORDINATED_UNIVERSAL_TIME_OFFSET(0,0,.AHEAD.) ;
#86=ORIENTED_EDGE('',*,*,#65,.T.) ;
#87=ORIENTED_EDGE('',*,*,#72,.F.) ;
#88=ORIENTED_EDGE('',*,*,#79,.F.) ;
#89=ORIENTED_EDGE('',*,*,#84,.T.) ;
#103=ORIENTED_EDGE('',*,*,#79,.T.) ;
#104=ORIENTED_EDGE('',*,*,#96,.F.) ;
#105=ORIENTED_EDGE('',*,*,#65,.F.) ;
#106=ORIENTED_EDGE('',*,*,#101,.T.) ;
#134=ORIENTED_EDGE('',*,*,#120,.T.) ;
#135=ORIENTED_EDGE('',*,*,#127,.F.) ;
#136=ORIENTED_EDGE('',*,*,#132,.F.) ;
#137=ORIENTED_EDGE('',*,*,#72,.T.) ;
#146=ORIENTED_EDGE('',*,*,#132,.T.) ;
#147=ORIENTED_EDGE('',*,*,#144,.F.) ;
#148=ORIENTED_EDGE('',*,*,#120,.F.) ;
#149=ORIENTED_EDGE('',*,*,#96,.T.) ;
#186=ORIENTED_EDGE('',*,*,#165,.T.) ;
#187=ORIENTED_EDGE('',*,*,#172,.F.) ;
#188=ORIENTED_EDGE('',*,*,#179,.F.) ;
#189=ORIENTED_EDGE('',*,*,#184,.T.) ;
#203=ORIENTED_EDGE('',*,*,#179,.T.) ;
#204=ORIENTED_EDGE('',*,*,#196,.F.) ;
#205=ORIENTED_EDGE('',*,*,#165,.F.) ;
#206=ORIENTED_EDGE('',*,*,#201,.T.) ;
#243=ORIENTED_EDGE('',*,*,#222,.T.) ;
#244=ORIENTED_EDGE('',*,*,#229,.F.) ;
#245=ORIENTED_EDGE('',*,*,#236,.F.) ;
#246=ORIENTED_EDGE('',*,*,#241,.T.) ;
#260=ORIENTED_EDGE('',*,*,#236,.T.) ;
#261=ORIENTED_EDGE('',*,*,#253,.F.) ;
#262=ORIENTED_EDGE('',*,*,#222,.F.) ;
#263=ORIENTED_EDGE('',*,*,#258,.T.) ;
#291=ORIENTED_EDGE('',*,*,#277,.T.) ;
#292=ORIENTED_EDGE('',*,*,#284,.F.) ;
#293=ORIENTED_EDGE('',*,*,#289,.F.) ;
#294=ORIENTED_EDGE('',*,*,#229,.T.) ;
#303=ORIENTED_EDGE('',*,*,#289,.T.) ;
#304=ORIENTED_EDGE('',*,*,#301,.F.) ;
#305=ORIENTED_EDGE('',*,*,#277,.F.) ;
#306=ORIENTED_EDGE('',*,*,#253,.T.) ;
#343=ORIENTED_EDGE('',*,*,#322,.T.) ;
#344=ORIENTED_EDGE('',*,*,#329,.F.) ;
#345=ORIENTED_EDGE('',*,*,#336,.F.) ;
#346=ORIENTED_EDGE('',*,*,#341,.T.) ;
#360=ORIENTED_EDGE('',*,*,#336,.T.) ;
#361=ORIENTED_EDGE('',*,*,#353,.F.) ;
#362=ORIENTED_EDGE('',*,*,#322,.F.) ;
#363=ORIENTED_EDGE('',*,*,#358,.T.) ;
#372=ORIENTED_EDGE('',*,*,#84,.F.) ;
#373=ORIENTED_EDGE('',*,*,#101,.F.) ;
#376=ORIENTED_EDGE('',*,*,#353,.T.) ;
#377=ORIENTED_EDGE('',*,*,#329,.T.) ;
#386=ORIENTED_EDGE('',*,*,#184,.F.) ;
#387=ORIENTED_EDGE('',*,*,#201,.F.) ;
#390=ORIENTED_EDGE('',*,*,#144,.T.) ;
#391=ORIENTED_EDGE('',*,*,#127,.T.) ;
#400=ORIENTED_EDGE('',*,*,#241,.F.) ;
#401=ORIENTED_EDGE('',*,*,#258,.F.) ;
#404=ORIENTED_EDGE('',*,*,#196,.T.) ;
#405=ORIENTED_EDGE('',*,*,#172,.T.) ;
#414=ORIENTED_EDGE('',*,*,#301,.T.) ;
#415=ORIENTED_EDGE('',*,*,#284,.T.) ;
#418=ORIENTED_EDGE('',*,*,#341,.F.) ;
#419=ORIENTED_EDGE('',*,*,#358,.F.) ;
#378=FACE_BOUND('',#375,.T.) ;
#392=FACE_BOUND('',#389,.T.) ;
#406=FACE_BOUND('',#403,.T.) ;
#420=FACE_BOUND('',#417,.T.) ;
#51=CLOSED_SHELL('Closed Shell',(#91,#108,#139,#151,#191,#208,#248,#265,#296,#308,#348,#365,#379,#393,#407,#421)) ;
#59=VECTOR('Line Direction',#58,1.) ;
#75=VECTOR('Line Direction',#74,1.) ;
#216=VECTOR('Line Direction',#215,1.) ;
#232=VECTOR('Line Direction',#231,1.) ;
#273=VECTOR('Line Direction',#272,1.) ;
#287=VECTOR('Line Direction',#286,1.) ;
#316=VECTOR('Line Direction',#315,1.) ;
#332=VECTOR('Line Direction',#331,1.) ;
#423=ADVANCED_BREP_SHAPE_REPRESENTATION('NONE',(#422),#46) ;
#49=SHAPE_REPRESENTATION(' ',(#48),#46) ;
#91=ADVANCED_FACE('Corps principal',(#90),#56,.T.) ;
#108=ADVANCED_FACE('Corps principal',(#107),#56,.T.) ;
#139=ADVANCED_FACE('Corps principal',(#138),#113,.F.) ;
#151=ADVANCED_FACE('Corps principal',(#150),#113,.F.) ;
#191=ADVANCED_FACE('Corps principal',(#190),#156,.F.) ;
#208=ADVANCED_FACE('Corps principal',(#207),#156,.F.) ;
#248=ADVANCED_FACE('Corps principal',(#247),#213,.T.) ;
#265=ADVANCED_FACE('Corps principal',(#264),#213,.T.) ;
#296=ADVANCED_FACE('Corps principal',(#295),#270,.T.) ;
#308=ADVANCED_FACE('Corps principal',(#307),#270,.T.) ;
#348=ADVANCED_FACE('Corps principal',(#347),#313,.F.) ;
#365=ADVANCED_FACE('Corps principal',(#364),#313,.F.) ;
#379=ADVANCED_FACE('Corps principal',(#374,#378),#370,.F.) ;
#393=ADVANCED_FACE('Corps principal',(#388,#392),#384,.F.) ;
#407=ADVANCED_FACE('Corps principal',(#402,#406),#398,.F.) ;
#421=ADVANCED_FACE('Corps principal',(#416,#420),#412,.T.) ;
#4=APPLICATION_PROTOCOL_DEFINITION('international standard','config_control_design',1994,#1) ;
#32=APPROVAL_DATE_TIME(#13,#21) ;
#422=MANIFOLD_SOLID_BREP('Corps principal',#51) ;
#11=CALENDAR_DATE(2024,15,1) ;
#30=CC_DESIGN_APPROVAL(#21,(#16,#6,#14)) ;
#18=CC_DESIGN_DATE_AND_TIME_ASSIGNMENT(#13,#17,(#16)) ;
#29=CC_DESIGN_DATE_AND_TIME_ASSIGNMENT(#13,#28,(#14)) ;
#17=DATE_TIME_ROLE('classification_date') ;
#28=DATE_TIME_ROLE('creation_date') ;
#27=CC_DESIGN_PERSON_AND_ORGANIZATION_ASSIGNMENT(#25,#26,(#16)) ;
#33=CC_DESIGN_PERSON_AND_ORGANIZATION_ASSIGNMENT(#25,#34,(#6)) ;
#35=CC_DESIGN_PERSON_AND_ORGANIZATION_ASSIGNMENT(#25,#36,(#6,#14)) ;
#37=CC_DESIGN_PERSON_AND_ORGANIZATION_ASSIGNMENT(#25,#38,(#5)) ;
#26=PERSON_AND_ORGANIZATION_ROLE('classification_officer') ;
#34=PERSON_AND_ORGANIZATION_ROLE('design_supplier') ;
#36=PERSON_AND_ORGANIZATION_ROLE('creator') ;
#38=PERSON_AND_ORGANIZATION_ROLE('design_owner') ;
#39=CC_DESIGN_SECURITY_CLASSIFICATION(#16,(#6)) ;
#69=CIRCLE('generated circle',#68,9.) ;
#83=CIRCLE('generated circle',#82,9.) ;
#95=CIRCLE('generated circle',#94,9.) ;
#100=CIRCLE('generated circle',#99,9.) ;
#117=CIRCLE('generated circle',#116,1.) ;
#124=CIRCLE('generated circle',#123,10.) ;
#131=CIRCLE('generated circle',#130,1.) ;
#143=CIRCLE('generated circle',#142,10.) ;
#160=CIRCLE('generated circle',#159,1.5) ;
#169=CIRCLE('generated circle',#168,13.5) ;
#176=CIRCLE('generated circle',#175,1.5) ;
#183=CIRCLE('generated circle',#182,12.) ;
#195=CIRCLE('generated circle',#194,13.5) ;
#200=CIRCLE('generated circle',#199,12.) ;
#226=CIRCLE('generated circle',#225,15.) ;
#240=CIRCLE('generated circle',#239,15.) ;
#252=CIRCLE('generated circle',#251,15.) ;
#257=CIRCLE('generated circle',#256,15.) ;
#281=CIRCLE('generated circle',#280,14.) ;
#300=CIRCLE('generated circle',#299,14.) ;
#326=CIRCLE('generated circle',#325,5.5) ;
#340=CIRCLE('generated circle',#339,7.5) ;
#352=CIRCLE('generated circle',#351,5.5) ;
#357=CIRCLE('generated circle',#356,7.5) ;
#270=CONICAL_SURFACE('Cone',#269,14.,0.785398163397) ;
#313=CONICAL_SURFACE('Cone',#312,5.5,0.321750554397) ;
#424=SHAPE_REPRESENTATION_RELATIONSHIP(' ',' ',#49,#423) ;
#56=CYLINDRICAL_SURFACE('generated cylinder',#55,9.) ;
#213=CYLINDRICAL_SURFACE('generated cylinder',#212,15.) ;
#113=TOROIDAL_SURFACE('homeo Torus',#112,10.,1.) ;
#156=TOROIDAL_SURFACE('homeo Torus',#155,13.5,1.5) ;
#3=DESIGN_CONTEXT(' ',#1,'design') ;
#65=EDGE_CURVE('',#62,#64,#60,.T.) ;
#72=EDGE_CURVE('',#71,#64,#69,.T.) ;
#79=EDGE_CURVE('',#78,#71,#76,.T.) ;
#84=EDGE_CURVE('',#78,#62,#83,.T.) ;
#96=EDGE_CURVE('',#64,#71,#95,.T.) ;
#101=EDGE_CURVE('',#62,#78,#100,.T.) ;
#120=EDGE_CURVE('',#64,#119,#117,.F.) ;
#127=EDGE_CURVE('',#126,#119,#124,.T.) ;
#132=EDGE_CURVE('',#71,#126,#131,.F.) ;
#144=EDGE_CURVE('',#119,#126,#143,.T.) ;
#165=EDGE_CURVE('',#162,#164,#160,.F.) ;
#172=EDGE_CURVE('',#171,#164,#169,.T.) ;
#179=EDGE_CURVE('',#178,#171,#176,.F.) ;
#184=EDGE_CURVE('',#178,#162,#183,.T.) ;
#196=EDGE_CURVE('',#164,#171,#195,.T.) ;
#201=EDGE_CURVE('',#162,#178,#200,.T.) ;
#222=EDGE_CURVE('',#219,#221,#217,.T.) ;
#229=EDGE_CURVE('',#228,#221,#226,.T.) ;
#236=EDGE_CURVE('',#235,#228,#233,.T.) ;
#241=EDGE_CURVE('',#235,#219,#240,.T.) ;
#253=EDGE_CURVE('',#221,#228,#252,.T.) ;
#258=EDGE_CURVE('',#219,#235,#257,.T.) ;
#277=EDGE_CURVE('',#221,#276,#274,.F.) ;
#284=EDGE_CURVE('',#283,#276,#281,.F.) ;
#289=EDGE_CURVE('',#228,#283,#288,.F.) ;
#301=EDGE_CURVE('',#276,#283,#300,.F.) ;
#322=EDGE_CURVE('',#319,#321,#317,.F.) ;
#329=EDGE_CURVE('',#328,#321,#326,.T.) ;
#336=EDGE_CURVE('',#335,#328,#333,.F.) ;
#341=EDGE_CURVE('',#335,#319,#340,.T.) ;
#353=EDGE_CURVE('',#321,#328,#352,.T.) ;
#358=EDGE_CURVE('',#319,#335,#357,.T.) ;
#85=EDGE_LOOP('',(#86,#87,#88,#89)) ;
#102=EDGE_LOOP('',(#103,#104,#105,#106)) ;
#133=EDGE_LOOP('',(#134,#135,#136,#137)) ;
#145=EDGE_LOOP('',(#146,#147,#148,#149)) ;
#185=EDGE_LOOP('',(#186,#187,#188,#189)) ;
#202=EDGE_LOOP('',(#203,#204,#205,#206)) ;
#242=EDGE_LOOP('',(#243,#244,#245,#246)) ;
#259=EDGE_LOOP('',(#260,#261,#262,#263)) ;
#290=EDGE_LOOP('',(#291,#292,#293,#294)) ;
#302=EDGE_LOOP('',(#303,#304,#305,#306)) ;
#342=EDGE_LOOP('',(#343,#344,#345,#346)) ;
#359=EDGE_LOOP('',(#360,#361,#362,#363)) ;
#371=EDGE_LOOP('',(#372,#373)) ;
#375=EDGE_LOOP('',(#376,#377)) ;
#385=EDGE_LOOP('',(#386,#387)) ;
#389=EDGE_LOOP('',(#390,#391)) ;
#399=EDGE_LOOP('',(#400,#401)) ;
#403=EDGE_LOOP('',(#404,#405)) ;
#413=EDGE_LOOP('',(#414,#415)) ;
#417=EDGE_LOOP('',(#418,#419)) ;
#90=FACE_OUTER_BOUND('',#85,.T.) ;
#107=FACE_OUTER_BOUND('',#102,.T.) ;
#138=FACE_OUTER_BOUND('',#133,.T.) ;
#150=FACE_OUTER_BOUND('',#145,.T.) ;
#190=FACE_OUTER_BOUND('',#185,.T.) ;
#207=FACE_OUTER_BOUND('',#202,.T.) ;
#247=FACE_OUTER_BOUND('',#242,.T.) ;
#264=FACE_OUTER_BOUND('',#259,.T.) ;
#295=FACE_OUTER_BOUND('',#290,.T.) ;
#307=FACE_OUTER_BOUND('',#302,.T.) ;
#347=FACE_OUTER_BOUND('',#342,.T.) ;
#364=FACE_OUTER_BOUND('',#359,.T.) ;
#374=FACE_OUTER_BOUND('',#371,.T.) ;
#388=FACE_OUTER_BOUND('',#385,.T.) ;
#402=FACE_OUTER_BOUND('',#399,.T.) ;
#416=FACE_OUTER_BOUND('',#413,.T.) ;
#45=UNCERTAINTY_MEASURE_WITH_UNIT(LENGTH_MEASURE(0.005),#41,'distance_accuracy_value','CONFUSED CURVE UNCERTAINTY') ;
#60=LINE('Line',#57,#59) ;
#76=LINE('Line',#73,#75) ;
#217=LINE('Line',#214,#216) ;
#233=LINE('Line',#230,#232) ;
#274=LINE('Line',#271,#273) ;
#288=LINE('Line',#285,#287) ;
#317=LINE('Line',#314,#316) ;
#333=LINE('Line',#330,#332) ;
#2=MECHANICAL_CONTEXT(' ',#1,'mechanical') ;
#24=PERSONAL_ADDRESS(' ',' ',' ',' ',' ',' ',' ',' ',' ',' ',' ',' ',(#22),' ') ;
#370=PLANE('',#369) ;
#384=PLANE('',#383) ;
#398=PLANE('',#397) ;
#412=PLANE('',#411) ;
#43=PLANE_ANGLE_MEASURE_WITH_UNIT(PLANE_ANGLE_MEASURE(0.0174532925199),#42) ;
#7=PRODUCT_CATEGORY('part',$) ;
#9=PRODUCT_CATEGORY_RELATIONSHIP(' ',' ',#7,#8) ;
#6=PRODUCT_DEFINITION_FORMATION_WITH_SPECIFIED_SOURCE('',' ',#5,.NOT_KNOWN.) ;
#8=PRODUCT_RELATED_PRODUCT_CATEGORY('detail',$,(#5)) ;
#50=SHAPE_DEFINITION_REPRESENTATION(#40,#49) ;
#62=VERTEX_POINT('',#61) ;
#64=VERTEX_POINT('',#63) ;
#71=VERTEX_POINT('',#70) ;
#78=VERTEX_POINT('',#77) ;
#119=VERTEX_POINT('',#118) ;
#126=VERTEX_POINT('',#125) ;
#162=VERTEX_POINT('',#161) ;
#164=VERTEX_POINT('',#163) ;
#171=VERTEX_POINT('',#170) ;
#178=VERTEX_POINT('',#177) ;
#219=VERTEX_POINT('',#218) ;
#221=VERTEX_POINT('',#220) ;
#228=VERTEX_POINT('',#227) ;
#235=VERTEX_POINT('',#234) ;
#276=VERTEX_POINT('',#275) ;
#283=VERTEX_POINT('',#282) ;
#319=VERTEX_POINT('',#318) ;
#321=VERTEX_POINT('',#320) ;
#328=VERTEX_POINT('',#327) ;
#335=VERTEX_POINT('',#334) ;
#41=(LENGTH_UNIT()NAMED_UNIT(*)SI_UNIT(.MILLI.,.METRE.)) ;
#42=(NAMED_UNIT(*)PLANE_ANGLE_UNIT()SI_UNIT($,.RADIAN.)) ;
#44=(NAMED_UNIT(*)SI_UNIT($,.STERADIAN.)SOLID_ANGLE_UNIT()) ;
#46=(GEOMETRIC_REPRESENTATION_CONTEXT(3)GLOBAL_UNCERTAINTY_ASSIGNED_CONTEXT((#45))GLOBAL_UNIT_ASSIGNED_CONTEXT((#41,#42,#44))REPRESENTATION_CONTEXT(' ',' ')) ;
ENDSEC;
END-ISO-10303-21;
