ISO-10303-21;
HEADER;
FILE_DESCRIPTION (( 'STEP AP203' ),
    '1' );
FILE_NAME ('OTC01I.STEP',
    '2024-01-17T17:08:22',
    ( '' ),
    ( '' ),
    'SwSTEP 2.0',
    'SolidWorks 2018',
    '' );
FILE_SCHEMA (( 'CONFIG_CONTROL_DESIGN' ));
ENDSEC;

DATA;
#1 = EDGE_CURVE ( 'NONE', #114, #45, #101, .T. ) ;
#2 = ORIENTED_EDGE ( 'NONE', *, *, #252, .F. ) ;
#3 = DIRECTION ( 'NONE',  ( 0.000000000000000000, 0.000000000000000000, 1.000000000000000000 ) ) ;
#4 = CARTESIAN_POINT ( 'NONE',  ( 17.00000000000000000, 0.000000000000000000, 0.000000000000000000 ) ) ;
#5 = AXIS2_PLACEMENT_3D ( 'NONE', #65, #237, #35 ) ;
#6 = DIRECTION ( 'NONE',  ( -1.000000000000000000, -0.000000000000000000, -0.000000000000000000 ) ) ;
#7 = ADVANCED_FACE ( 'NONE', ( #139 ), #157, .T. ) ;
#8 = LINE ( 'NONE', #76, #226 ) ;
#9 = AXIS2_PLACEMENT_3D ( 'NONE', #124, #181, #321 ) ;
#10 = MANIFOLD_SOLID_BREP ( 'Révolution1', #176 ) ;
#11 = CC_DESIGN_DATE_AND_TIME_ASSIGNMENT ( #340, #172, ( #104 ) ) ;
#12 = SHAPE_DEFINITION_REPRESENTATION ( #380, #305 ) ;
#13 = CIRCLE ( 'NONE', #313, 5.000000000000000000 ) ;
#14 = CARTESIAN_POINT ( 'NONE',  ( 12.00000000000000000, 7.347880794884119736E-16, -6.000000000000000000 ) ) ;
#15 = PERSON_AND_ORGANIZATION ( #187, #298 ) ;
#16 = CYLINDRICAL_SURFACE ( 'NONE', #375, 3.000000000000000444 ) ;
#17 = VERTEX_POINT ( 'NONE', #57 ) ;
#18 = DIRECTION ( 'NONE',  ( -1.000000000000000000, 0.000000000000000000, -0.000000000000000000 ) ) ;
#19 = DIRECTION ( 'NONE',  ( -1.000000000000000000, -0.000000000000000000, -0.000000000000000000 ) ) ;
#20 = CALENDAR_DATE ( 2024, 17, 1 ) ;
#21 = VERTEX_POINT ( 'NONE', #82 ) ;
#22 = DATE_TIME_ROLE ( 'classification_date' ) ;
#23 = CC_DESIGN_APPROVAL ( #218, ( #104 ) ) ;
#24 = APPROVAL_STATUS ( 'not_yet_approved' ) ;
#25 = APPROVAL_PERSON_ORGANIZATION ( #198, #218, #115 ) ;
#26 = CONICAL_SURFACE ( 'NONE', #350, 2.500000000000000000, 0.09966865249116194092 ) ;
#27 = AXIS2_PLACEMENT_3D ( 'NONE', #267, #301, #159 ) ;
#28 = CARTESIAN_POINT ( 'NONE',  ( 12.00000000000000000, 0.000000000000000000, 0.000000000000000000 ) ) ;
#29 = AXIS2_PLACEMENT_3D ( 'NONE', #28, #60, #122 ) ;
#30 = CARTESIAN_POINT ( 'NONE',  ( 12.00000000000000000, 0.000000000000000000, 0.000000000000000000 ) ) ;
#31 = VECTOR ( 'NONE', #381, 1000.000000000000000 ) ;
#32 = ORIENTED_EDGE ( 'NONE', *, *, #279, .F. ) ;
#33 = PRODUCT_DEFINITION_FORMATION_WITH_SPECIFIED_SOURCE ( 'ANY', '', #229, .NOT_KNOWN. ) ;
#34 = EDGE_CURVE ( 'NONE', #114, #355, #71, .T. ) ;
#35 = DIRECTION ( 'NONE',  ( 0.000000000000000000, 0.000000000000000000, 1.000000000000000000 ) ) ;
#36 = CYLINDRICAL_SURFACE ( 'NONE', #260, 3.000000000000000000 ) ;
#37 = DIRECTION ( 'NONE',  ( -1.000000000000000000, -0.000000000000000000, -0.000000000000000000 ) ) ;
#38 = LINE ( 'NONE', #382, #167 ) ;
#39 = EDGE_LOOP ( 'NONE', ( #341, #140 ) ) ;
#40 = CARTESIAN_POINT ( 'NONE',  ( 17.00000000000000000, 0.000000000000000000, 0.000000000000000000 ) ) ;
#41 = PERSON_AND_ORGANIZATION ( #187, #298 ) ;
#42 = VERTEX_POINT ( 'NONE', #314 ) ;
#43 = EDGE_CURVE ( 'NONE', #273, #21, #361, .T. ) ;
#44 = VECTOR ( 'NONE', #177, 1000.000000000000114 ) ;
#45 = VERTEX_POINT ( 'NONE', #316 ) ;
#46 = DIRECTION ( 'NONE',  ( -1.000000000000000000, -0.000000000000000000, -0.000000000000000000 ) ) ;
#47 = EDGE_CURVE ( 'NONE', #21, #273, #374, .T. ) ;
#48 = APPROVAL_DATE_TIME ( #174, #73 ) ;
#49 = ORIENTED_EDGE ( 'NONE', *, *, #241, .F. ) ;
#50 = APPROVAL_STATUS ( 'not_yet_approved' ) ;
#51 = CC_DESIGN_PERSON_AND_ORGANIZATION_ASSIGNMENT ( #262, #52, ( #33 ) ) ;
#52 = PERSON_AND_ORGANIZATION_ROLE ( 'creator' ) ;
#53 = AXIS2_PLACEMENT_3D ( 'NONE', #30, #261, #204 ) ;
#54 = LINE ( 'NONE', #356, #44 ) ;
#55 = PERSON_AND_ORGANIZATION_ROLE ( 'design_supplier' ) ;
#56 = VERTEX_POINT ( 'NONE', #353 ) ;
#57 = CARTESIAN_POINT ( 'NONE',  ( 17.00000000000000000, 0.000000000000000000, 5.000000000000000000 ) ) ;
#58 = DIRECTION ( 'NONE',  ( -1.000000000000000000, -0.000000000000000000, -0.000000000000000000 ) ) ;
#59 = LINE ( 'NONE', #179, #277 ) ;
#60 = DIRECTION ( 'NONE',  ( -1.000000000000000000, -0.000000000000000000, -0.000000000000000000 ) ) ;
#61 = ORIENTED_EDGE ( 'NONE', *, *, #47, .T. ) ;
#62 = DIRECTION ( 'NONE',  ( 0.000000000000000000, 0.000000000000000000, -1.000000000000000000 ) ) ;
#63 = EDGE_CURVE ( 'NONE', #42, #273, #38, .T. ) ;
#64 = DIRECTION ( 'NONE',  ( -1.000000000000000000, -0.000000000000000000, -0.000000000000000000 ) ) ;
#65 = CARTESIAN_POINT ( 'NONE',  ( 17.00000000000000000, 0.000000000000000000, 0.000000000000000000 ) ) ;
#66 = ORIENTED_EDGE ( 'NONE', *, *, #1, .F. ) ;
#67 = EDGE_CURVE ( 'NONE', #383, #283, #303, .T. ) ;
#68 = DIRECTION ( 'NONE',  ( 0.000000000000000000, 0.000000000000000000, 1.000000000000000000 ) ) ;
#69 = SECURITY_CLASSIFICATION ( '', '', #285 ) ;
#70 = EDGE_CURVE ( 'NONE', #120, #45, #54, .T. ) ;
#71 = LINE ( 'NONE', #148, #94 ) ;
#72 = ORIENTED_EDGE ( 'NONE', *, *, #79, .F. ) ;
#73 = APPROVAL ( #254, 'UNSPECIFIED' ) ;
#74 = CIRCLE ( 'NONE', #5, 3.000000000000000000 ) ;
#75 = ADVANCED_FACE ( 'NONE', ( #292 ), #26, .T. ) ;
#76 = CARTESIAN_POINT ( 'NONE',  ( -19.22539334065129069, 3.673940397442059868E-16, -3.000000000000000000 ) ) ;
#77 = LINE ( 'NONE', #323, #213 ) ;
#78 = VERTEX_POINT ( 'NONE', #358 ) ;
#79 = EDGE_CURVE ( 'NONE', #383, #56, #205, .T. ) ;
#80 = FACE_OUTER_BOUND ( 'NONE', #182, .T. ) ;
#81 = DIRECTION ( 'NONE',  ( -1.000000000000000000, -0.000000000000000000, -0.000000000000000000 ) ) ;
#82 = CARTESIAN_POINT ( 'NONE',  ( 12.00000000000000000, 0.000000000000000000, 6.000000000000000000 ) ) ;
#83 = APPLICATION_PROTOCOL_DEFINITION ( 'international standard', 'config_control_design', 1994, #121 ) ;
#84 = CALENDAR_DATE ( 2024, 17, 1 ) ;
#85 = CIRCLE ( 'NONE', #299, 2.500000000000000000 ) ;
#86 = ORIENTED_EDGE ( 'NONE', *, *, #79, .T. ) ;
#87 = CARTESIAN_POINT ( 'NONE',  ( 28.99999999999999645, 0.000000000000000000, 3.000000000000000000 ) ) ;
#88 = AXIS2_PLACEMENT_3D ( 'NONE', #326, #188, #302 ) ;
#89 = CARTESIAN_POINT ( 'NONE',  ( 17.00000000000000000, 3.673940397442059868E-16, -3.000000000000000000 ) ) ;
#90 = UNCERTAINTY_MEASURE_WITH_UNIT (LENGTH_MEASURE( 1.000000000000000082E-05 ), #256, 'distance_accuracy_value', 'NONE');
#91 = DIRECTION ( 'NONE',  ( -1.000000000000000000, -0.000000000000000000, -0.000000000000000000 ) ) ;
#92 = LINE ( 'NONE', #112, #31 ) ;
#93 = DIRECTION ( 'NONE',  ( -0.9950371902099890420, 0.000000000000000000, 0.09950371902099881816 ) ) ;
#94 = VECTOR ( 'NONE', #349, 1000.000000000000000 ) ;
#95 = CC_DESIGN_SECURITY_CLASSIFICATION ( #69, ( #33 ) ) ;
#96 = DIRECTION ( 'NONE',  ( 0.000000000000000000, 0.000000000000000000, 1.000000000000000000 ) ) ;
#97 = CARTESIAN_POINT ( 'NONE',  ( 0.000000000000000000, 0.000000000000000000, 0.000000000000000000 ) ) ;
#98 = ADVANCED_FACE ( 'NONE', ( #319 ), #16, .T. ) ;
#99 = DIRECTION ( 'NONE',  ( -1.000000000000000000, -0.000000000000000000, -0.000000000000000000 ) ) ;
#100 = DATE_AND_TIME ( #84, #113 ) ;
#101 = CIRCLE ( 'NONE', #183, 3.000000000000000000 ) ;
#102 = ORIENTED_EDGE ( 'NONE', *, *, #43, .F. ) ;
#103 = DIRECTION ( 'NONE',  ( 0.000000000000000000, 0.000000000000000000, 1.000000000000000000 ) ) ;
#104 = PRODUCT_DEFINITION ( 'UNKNOWN', '', #33, #189 ) ;
#105 = COORDINATED_UNIVERSAL_TIME_OFFSET ( 1, 0, .AHEAD. ) ;
#106 = ORIENTED_EDGE ( 'NONE', *, *, #154, .F. ) ;
#107 = EDGE_CURVE ( 'NONE', #227, #114, #77, .T. ) ;
#108 = CC_DESIGN_PERSON_AND_ORGANIZATION_ASSIGNMENT ( #286, #377, ( #69 ) ) ;
#109 = CALENDAR_DATE ( 2024, 17, 1 ) ;
#110 = CYLINDRICAL_SURFACE ( 'NONE', #334, 3.000000000000000000 ) ;
#111 = EDGE_LOOP ( 'NONE', ( #86, #160, #106, #333 ) ) ;
#112 = CARTESIAN_POINT ( 'NONE',  ( -19.22539334065129069, 3.673940397442060361E-16, -3.000000000000000444 ) ) ;
#113 = LOCAL_TIME ( 18, 8, 22.00000000000000000, #324 ) ;
#114 = VERTEX_POINT ( 'NONE', #87 ) ;
#115 = APPROVAL_ROLE ( '' ) ;
#116 =( NAMED_UNIT ( * ) SI_UNIT ( $, .STERADIAN. ) SOLID_ANGLE_UNIT ( ) );
#117 = DIRECTION ( 'NONE',  ( 0.000000000000000000, 0.000000000000000000, 1.000000000000000000 ) ) ;
#118 = CARTESIAN_POINT ( 'NONE',  ( 0.000000000000000000, 0.000000000000000000, 0.000000000000000000 ) ) ;
#119 = FACE_OUTER_BOUND ( 'NONE', #337, .T. ) ;
#120 = VERTEX_POINT ( 'NONE', #354 ) ;
#121 = APPLICATION_CONTEXT ( 'configuration controlled 3d designs of mechanical parts and assemblies' ) ;
#122 = DIRECTION ( 'NONE',  ( 0.000000000000000000, 0.000000000000000000, 1.000000000000000000 ) ) ;
#123 = DIRECTION ( 'NONE',  ( -1.000000000000000000, -0.000000000000000000, -0.000000000000000000 ) ) ;
#124 = CARTESIAN_POINT ( 'NONE',  ( 34.00000000000000000, 2.500000000000000000, 0.000000000000000000 ) ) ;
#125 = COORDINATED_UNIVERSAL_TIME_OFFSET ( 1, 0, .AHEAD. ) ;
#126 = ORIENTED_EDGE ( 'NONE', *, *, #163, .T. ) ;
#127 = DIRECTION ( 'NONE',  ( -1.000000000000000000, -0.000000000000000000, -0.000000000000000000 ) ) ;
#128 = DIRECTION ( 'NONE',  ( -1.000000000000000000, -0.000000000000000000, -0.000000000000000000 ) ) ;
#129 = DIRECTION ( 'NONE',  ( 0.000000000000000000, 0.000000000000000000, 1.000000000000000000 ) ) ;
#130 = CONICAL_SURFACE ( 'NONE', #359, 5.000000000000000000, 0.1973955598498806641 ) ;
#131 = CC_DESIGN_DATE_AND_TIME_ASSIGNMENT ( #100, #22, ( #69 ) ) ;
#132 = ORIENTED_EDGE ( 'NONE', *, *, #136, .F. ) ;
#133 = DIRECTION ( 'NONE',  ( 0.000000000000000000, 0.000000000000000000, 1.000000000000000000 ) ) ;
#134 = ADVANCED_FACE ( 'NONE', ( #255 ), #291, .F. ) ;
#135 = VERTEX_POINT ( 'NONE', #89 ) ;
#136 = EDGE_CURVE ( 'NONE', #17, #21, #59, .T. ) ;
#137 = EDGE_LOOP ( 'NONE', ( #2, #246, #320, #192 ) ) ;
#138 = ADVANCED_FACE ( 'NONE', ( #346, #80 ), #155, .F. ) ;
#139 = FACE_OUTER_BOUND ( 'NONE', #362, .T. ) ;
#140 = ORIENTED_EDGE ( 'NONE', *, *, #243, .T. ) ;
#141 = ADVANCED_FACE ( 'NONE', ( #309 ), #378, .T. ) ;
#142 = DIRECTION ( 'NONE',  ( -1.000000000000000000, -0.000000000000000000, -0.000000000000000000 ) ) ;
#143 = CIRCLE ( 'NONE', #275, 3.000000000000000000 ) ;
#144 = ORIENTED_EDGE ( 'NONE', *, *, #70, .T. ) ;
#145 = CC_DESIGN_PERSON_AND_ORGANIZATION_ASSIGNMENT ( #41, #55, ( #33 ) ) ;
#146 = DIRECTION ( 'NONE',  ( 0.000000000000000000, 0.000000000000000000, 1.000000000000000000 ) ) ;
#147 = EDGE_CURVE ( 'NONE', #355, #135, #143, .T. ) ;
#148 = CARTESIAN_POINT ( 'NONE',  ( -19.22539334065129069, 0.000000000000000000, 3.000000000000000000 ) ) ;
#149 = MECHANICAL_CONTEXT ( 'NONE', #121, 'mechanical' ) ;
#150 = PERSON_AND_ORGANIZATION_ROLE ( 'creator' ) ;
#151 = CIRCLE ( 'NONE', #322, 2.500000000000000000 ) ;
#152 = CARTESIAN_POINT ( 'NONE',  ( 34.00000000000000000, 0.000000000000000000, 0.000000000000000000 ) ) ;
#153 = EDGE_LOOP ( 'NONE', ( #220, #384, #264, #102 ) ) ;
#154 = EDGE_CURVE ( 'NONE', #283, #78, #233, .T. ) ;
#155 = PLANE ( 'NONE',  #328 ) ;
#156 = APPROVAL ( #50, 'UNSPECIFIED' ) ;
#157 = CYLINDRICAL_SURFACE ( 'NONE', #200, 3.000000000000000444 ) ;
#158 = EDGE_CURVE ( 'NONE', #227, #120, #85, .T. ) ;
#159 = DIRECTION ( 'NONE',  ( 0.000000000000000000, 0.000000000000000000, 1.000000000000000000 ) ) ;
#160 = ORIENTED_EDGE ( 'NONE', *, *, #289, .T. ) ;
#161 = ORIENTED_EDGE ( 'NONE', *, *, #279, .T. ) ;
#162 = ADVANCED_FACE ( 'NONE', ( #164 ), #363, .F. ) ;
#163 = EDGE_CURVE ( 'NONE', #135, #355, #74, .T. ) ;
#164 = FACE_OUTER_BOUND ( 'NONE', #39, .T. ) ;
#165 = EDGE_CURVE ( 'NONE', #45, #114, #300, .T. ) ;
#166 = PERSON_AND_ORGANIZATION ( #187, #298 ) ;
#167 = VECTOR ( 'NONE', #294, 1000.000000000000000 ) ;
#168 = ORIENTED_EDGE ( 'NONE', *, *, #158, .F. ) ;
#169 = CARTESIAN_POINT ( 'NONE',  ( 17.00000000000000000, 0.000000000000000000, 0.000000000000000000 ) ) ;
#170 = DATE_AND_TIME ( #249, #332 ) ;
#171 = ORIENTED_EDGE ( 'NONE', *, *, #211, .F. ) ;
#172 = DATE_TIME_ROLE ( 'creation_date' ) ;
#173 = APPROVAL_ROLE ( '' ) ;
#174 = DATE_AND_TIME ( #20, #191 ) ;
#175 = ORIENTED_EDGE ( 'NONE', *, *, #1, .T. ) ;
#176 = CLOSED_SHELL ( 'NONE', ( #75, #194, #240, #98, #162, #7, #138, #141, #274, #365, #242, #134 ) ) ;
#177 = DIRECTION ( 'NONE',  ( -0.9950371902099890420, 1.218569110023238269E-17, -0.09950371902099881816 ) ) ;
#178 = CARTESIAN_POINT ( 'NONE',  ( -19.22539334065129069, 0.000000000000000000, 3.000000000000000444 ) ) ;
#179 = CARTESIAN_POINT ( 'NONE',  ( 17.00000000000000000, 0.000000000000000000, 5.000000000000000000 ) ) ;
#180 = CC_DESIGN_APPROVAL ( #156, ( #69 ) ) ;
#181 = DIRECTION ( 'NONE',  ( -1.000000000000000000, 0.000000000000000000, -0.000000000000000000 ) ) ;
#182 = EDGE_LOOP ( 'NONE', ( #61, #325 ) ) ;
#183 = AXIS2_PLACEMENT_3D ( 'NONE', #345, #288, #225 ) ;
#184 = FACE_OUTER_BOUND ( 'NONE', #137, .T. ) ;
#185 = FACE_OUTER_BOUND ( 'NONE', #307, .T. ) ;
#186 = EDGE_LOOP ( 'NONE', ( #168, #32 ) ) ;
#187 = PERSON ( 'UNSPECIFIED', 'UNSPECIFIED', 'UNSPECIFIED', ('UNSPECIFIED'), ('UNSPECIFIED'), ('UNSPECIFIED') ) ;
#188 = DIRECTION ( 'NONE',  ( -1.000000000000000000, -0.000000000000000000, -0.000000000000000000 ) ) ;
#189 = DESIGN_CONTEXT ( 'detailed design', #343, 'design' ) ;
#190 = AXIS2_PLACEMENT_3D ( 'NONE', #40, #360, #284 ) ;
#191 = LOCAL_TIME ( 18, 8, 22.00000000000000000, #244 ) ;
#192 = ORIENTED_EDGE ( 'NONE', *, *, #163, .F. ) ;
#193 = PRODUCT_RELATED_PRODUCT_CATEGORY ( 'detail', '', ( #229 ) ) ;
#194 = ADVANCED_FACE ( 'NONE', ( #185 ), #110, .T. ) ;
#195 = CIRCLE ( 'NONE', #190, 5.000000000000000000 ) ;
#196 = ORIENTED_EDGE ( 'NONE', *, *, #165, .F. ) ;
#197 = CARTESIAN_POINT ( 'NONE',  ( 17.00000000000000000, 5.000000000000000000, 0.000000000000000000 ) ) ;
#198 = PERSON_AND_ORGANIZATION ( #187, #298 ) ;
#199 = ORIENTED_EDGE ( 'NONE', *, *, #252, .T. ) ;
#200 = AXIS2_PLACEMENT_3D ( 'NONE', #253, #81, #117 ) ;
#201 = DIRECTION ( 'NONE',  ( 0.000000000000000000, 0.000000000000000000, 1.000000000000000000 ) ) ;
#202 = CIRCLE ( 'NONE', #27, 3.000000000000000444 ) ;
#203 = EDGE_LOOP ( 'NONE', ( #329, #214, #376, #132 ) ) ;
#204 = DIRECTION ( 'NONE',  ( 0.000000000000000000, 0.000000000000000000, 1.000000000000000000 ) ) ;
#205 = CIRCLE ( 'NONE', #53, 3.000000000000000444 ) ;
#206 = ORIENTED_EDGE ( 'NONE', *, *, #107, .T. ) ;
#207 = AXIS2_PLACEMENT_3D ( 'NONE', #295, #127, #297 ) ;
#208 = DIRECTION ( 'NONE',  ( 0.000000000000000000, 0.000000000000000000, 1.000000000000000000 ) ) ;
#209 = CARTESIAN_POINT ( 'NONE',  ( 17.00000000000000000, 0.000000000000000000, 0.000000000000000000 ) ) ;
#210 = DIRECTION ( 'NONE',  ( 0.000000000000000000, 0.000000000000000000, -1.000000000000000000 ) ) ;
#211 = EDGE_CURVE ( 'NONE', #56, #383, #202, .T. ) ;
#212 = DIRECTION ( 'NONE',  ( -1.000000000000000000, -0.000000000000000000, -0.000000000000000000 ) ) ;
#213 = VECTOR ( 'NONE', #93, 1000.000000000000114 ) ;
#214 = ORIENTED_EDGE ( 'NONE', *, *, #63, .T. ) ;
#215 = AXIS2_PLACEMENT_3D ( 'NONE', #228, #91, #208 ) ;
#216 = LOCAL_TIME ( 18, 8, 22.00000000000000000, #105 ) ;
#217 = FACE_BOUND ( 'NONE', #238, .T. ) ;
#218 = APPROVAL ( #24, 'UNSPECIFIED' ) ;
#219 = FACE_OUTER_BOUND ( 'NONE', #293, .T. ) ;
#220 = ORIENTED_EDGE ( 'NONE', *, *, #63, .F. ) ;
#221 = AXIS2_PLACEMENT_3D ( 'NONE', #364, #212, #96 ) ;
#222 = CARTESIAN_POINT ( 'NONE',  ( -19.22539334065129069, 0.000000000000000000, 0.000000000000000000 ) ) ;
#223 = APPROVAL_DATE_TIME ( #170, #156 ) ;
#224 = ORIENTED_EDGE ( 'NONE', *, *, #158, .T. ) ;
#225 = DIRECTION ( 'NONE',  ( 0.000000000000000000, 0.000000000000000000, 1.000000000000000000 ) ) ;
#226 = VECTOR ( 'NONE', #372, 1000.000000000000000 ) ;
#227 = VERTEX_POINT ( 'NONE', #235 ) ;
#228 = CARTESIAN_POINT ( 'NONE',  ( 17.00000000000000000, 0.000000000000000000, 0.000000000000000000 ) ) ;
#229 = PRODUCT ( 'OTC01I', 'OTC01I', '', ( #149 ) ) ;
#230 = DIRECTION ( 'NONE',  ( 1.000000000000000000, 0.000000000000000000, 0.000000000000000000 ) ) ;
#231 = CARTESIAN_POINT ( 'NONE',  ( -19.22539334065129069, 0.000000000000000000, 0.000000000000000000 ) ) ;
#232 = LOCAL_TIME ( 18, 8, 22.00000000000000000, #125 ) ;
#233 = CIRCLE ( 'NONE', #371, 3.000000000000000444 ) ;
#234 = DIRECTION ( 'NONE',  ( 1.000000000000000000, 0.000000000000000000, 0.000000000000000000 ) ) ;
#235 = CARTESIAN_POINT ( 'NONE',  ( 34.00000000000000000, 0.000000000000000000, 2.500000000000000000 ) ) ;
#236 = APPROVAL_DATE_TIME ( #276, #218 ) ;
#237 = DIRECTION ( 'NONE',  ( -1.000000000000000000, -0.000000000000000000, -0.000000000000000000 ) ) ;
#238 = EDGE_LOOP ( 'NONE', ( #336, #126 ) ) ;
#239 = EDGE_LOOP ( 'NONE', ( #72, #171 ) ) ;
#240 = ADVANCED_FACE ( 'NONE', ( #268 ), #130, .T. ) ;
#241 = EDGE_CURVE ( 'NONE', #42, #17, #195, .T. ) ;
#242 = ADVANCED_FACE ( 'NONE', ( #119 ), #369, .T. ) ;
#243 = EDGE_CURVE ( 'NONE', #78, #283, #367, .T. ) ;
#244 = COORDINATED_UNIVERSAL_TIME_OFFSET ( 1, 0, .AHEAD. ) ;
#245 = ORIENTED_EDGE ( 'NONE', *, *, #289, .F. ) ;
#246 = ORIENTED_EDGE ( 'NONE', *, *, #165, .T. ) ;
#247 = CARTESIAN_POINT ( 'NONE',  ( 0.000000000000000000, 0.000000000000000000, 3.000000000000000444 ) ) ;
#248 = CARTESIAN_POINT ( 'NONE',  ( 17.00000000000000000, 0.000000000000000000, 3.000000000000000000 ) ) ;
#249 = CALENDAR_DATE ( 2024, 17, 1 ) ;
#250 = ORIENTED_EDGE ( 'NONE', *, *, #70, .F. ) ;
#251 = CARTESIAN_POINT ( 'NONE',  ( 34.00000000000000000, 0.000000000000000000, 0.000000000000000000 ) ) ;
#252 = EDGE_CURVE ( 'NONE', #45, #135, #8, .T. ) ;
#253 = CARTESIAN_POINT ( 'NONE',  ( -19.22539334065129069, 0.000000000000000000, 0.000000000000000000 ) ) ;
#254 = APPROVAL_STATUS ( 'not_yet_approved' ) ;
#255 = FACE_OUTER_BOUND ( 'NONE', #186, .T. ) ;
#256 =( LENGTH_UNIT ( ) NAMED_UNIT ( * ) SI_UNIT ( .MILLI., .METRE. ) );
#257 = ORIENTED_EDGE ( 'NONE', *, *, #34, .F. ) ;
#258 = CARTESIAN_POINT ( 'NONE',  ( 12.00000000000000000, 3.000000000000000444, 0.000000000000000000 ) ) ;
#259 = DIRECTION ( 'NONE',  ( 0.000000000000000000, 0.000000000000000000, 1.000000000000000000 ) ) ;
#260 = AXIS2_PLACEMENT_3D ( 'NONE', #222, #19, #146 ) ;
#261 = DIRECTION ( 'NONE',  ( -1.000000000000000000, -0.000000000000000000, -0.000000000000000000 ) ) ;
#262 = PERSON_AND_ORGANIZATION ( #187, #298 ) ;
#263 = AXIS2_PLACEMENT_3D ( 'NONE', #280, #46, #338 ) ;
#264 = ORIENTED_EDGE ( 'NONE', *, *, #136, .T. ) ;
#265 = DIRECTION ( 'NONE',  ( -1.000000000000000000, -0.000000000000000000, -0.000000000000000000 ) ) ;
#266 =( GEOMETRIC_REPRESENTATION_CONTEXT ( 3 ) GLOBAL_UNCERTAINTY_ASSIGNED_CONTEXT ( ( #90 ) ) GLOBAL_UNIT_ASSIGNED_CONTEXT ( ( #256, #351, #116 ) ) REPRESENTATION_CONTEXT ( 'NONE', 'WORKASPACE' ) );
#267 = CARTESIAN_POINT ( 'NONE',  ( 12.00000000000000000, 0.000000000000000000, 0.000000000000000000 ) ) ;
#268 = FACE_OUTER_BOUND ( 'NONE', #203, .T. ) ;
#269 = EDGE_LOOP ( 'NONE', ( #224, #144, #66, #330 ) ) ;
#270 = EDGE_CURVE ( 'NONE', #17, #42, #13, .T. ) ;
#271 = CARTESIAN_POINT ( 'NONE',  ( 34.00000000000000000, 0.000000000000000000, 0.000000000000000000 ) ) ;
#272 = COORDINATED_UNIVERSAL_TIME_OFFSET ( 1, 0, .AHEAD. ) ;
#273 = VERTEX_POINT ( 'NONE', #14 ) ;
#274 = ADVANCED_FACE ( 'NONE', ( #219, #217 ), #373, .F. ) ;
#275 = AXIS2_PLACEMENT_3D ( 'NONE', #209, #6, #68 ) ;
#276 = DATE_AND_TIME ( #109, #216 ) ;
#277 = VECTOR ( 'NONE', #385, 1000.000000000000000 ) ;
#278 = ORIENTED_EDGE ( 'NONE', *, *, #243, .F. ) ;
#279 = EDGE_CURVE ( 'NONE', #120, #227, #151, .T. ) ;
#280 = CARTESIAN_POINT ( 'NONE',  ( 0.000000000000000000, 0.000000000000000000, 0.000000000000000000 ) ) ;
#281 = CC_DESIGN_PERSON_AND_ORGANIZATION_ASSIGNMENT ( #335, #317, ( #229 ) ) ;
#282 = DIRECTION ( 'NONE',  ( -0.000000000000000000, 0.000000000000000000, 1.000000000000000000 ) ) ;
#283 = VERTEX_POINT ( 'NONE', #247 ) ;
#284 = DIRECTION ( 'NONE',  ( 0.000000000000000000, 0.000000000000000000, 1.000000000000000000 ) ) ;
#285 = SECURITY_CLASSIFICATION_LEVEL ( 'unclassified' ) ;
#286 = PERSON_AND_ORGANIZATION ( #187, #298 ) ;
#287 = DIRECTION ( 'NONE',  ( -1.000000000000000000, -0.000000000000000000, -0.000000000000000000 ) ) ;
#288 = DIRECTION ( 'NONE',  ( -1.000000000000000000, -0.000000000000000000, -0.000000000000000000 ) ) ;
#289 = EDGE_CURVE ( 'NONE', #56, #78, #92, .T. ) ;
#290 = DIRECTION ( 'NONE',  ( 0.000000000000000000, 0.000000000000000000, 1.000000000000000000 ) ) ;
#291 = PLANE ( 'NONE',  #9 ) ;
#292 = FACE_OUTER_BOUND ( 'NONE', #269, .T. ) ;
#293 = EDGE_LOOP ( 'NONE', ( #304, #49 ) ) ;
#294 = DIRECTION ( 'NONE',  ( -0.9805806756909202226, 2.401729971581267947E-17, -0.1961161351381839890 ) ) ;
#295 = CARTESIAN_POINT ( 'NONE',  ( 12.00000000000000000, 0.000000000000000000, 0.000000000000000000 ) ) ;
#296 = CC_DESIGN_PERSON_AND_ORGANIZATION_ASSIGNMENT ( #327, #150, ( #104 ) ) ;
#297 = DIRECTION ( 'NONE',  ( 0.000000000000000000, 0.000000000000000000, 1.000000000000000000 ) ) ;
#298 = ORGANIZATION ( 'UNSPECIFIED', 'UNSPECIFIED', '' ) ;
#299 = AXIS2_PLACEMENT_3D ( 'NONE', #271, #99, #3 ) ;
#300 = CIRCLE ( 'NONE', #88, 3.000000000000000000 ) ;
#301 = DIRECTION ( 'NONE',  ( -1.000000000000000000, -0.000000000000000000, -0.000000000000000000 ) ) ;
#302 = DIRECTION ( 'NONE',  ( 0.000000000000000000, 0.000000000000000000, 1.000000000000000000 ) ) ;
#303 = LINE ( 'NONE', #178, #312 ) ;
#304 = ORIENTED_EDGE ( 'NONE', *, *, #270, .F. ) ;
#305 = ADVANCED_BREP_SHAPE_REPRESENTATION ( 'OTC01I', ( #10, #370 ), #266 ) ;
#306 = APPROVAL_PERSON_ORGANIZATION ( #166, #73, #173 ) ;
#307 = EDGE_LOOP ( 'NONE', ( #175, #199, #348, #257 ) ) ;
#308 = AXIS2_PLACEMENT_3D ( 'NONE', #197, #18, #282 ) ;
#309 = FACE_OUTER_BOUND ( 'NONE', #153, .T. ) ;
#310 = ORIENTED_EDGE ( 'NONE', *, *, #67, .T. ) ;
#311 = APPROVAL_ROLE ( '' ) ;
#312 = VECTOR ( 'NONE', #58, 1000.000000000000000 ) ;
#313 = AXIS2_PLACEMENT_3D ( 'NONE', #169, #142, #339 ) ;
#314 = CARTESIAN_POINT ( 'NONE',  ( 17.00000000000000000, 6.735557395310443009E-16, -5.000000000000000000 ) ) ;
#315 = DIRECTION ( 'NONE',  ( 1.000000000000000000, 0.000000000000000000, 0.000000000000000000 ) ) ;
#316 = CARTESIAN_POINT ( 'NONE',  ( 28.99999999999999645, 3.673940397442059868E-16, -3.000000000000000000 ) ) ;
#317 = PERSON_AND_ORGANIZATION_ROLE ( 'design_owner' ) ;
#318 = CALENDAR_DATE ( 2024, 17, 1 ) ;
#319 = FACE_OUTER_BOUND ( 'NONE', #111, .T. ) ;
#320 = ORIENTED_EDGE ( 'NONE', *, *, #34, .T. ) ;
#321 = DIRECTION ( 'NONE',  ( -0.000000000000000000, 0.000000000000000000, 1.000000000000000000 ) ) ;
#322 = AXIS2_PLACEMENT_3D ( 'NONE', #251, #287, #201 ) ;
#323 = CARTESIAN_POINT ( 'NONE',  ( 34.00000000000000000, 0.000000000000000000, 2.500000000000000000 ) ) ;
#324 = COORDINATED_UNIVERSAL_TIME_OFFSET ( 1, 0, .AHEAD. ) ;
#325 = ORIENTED_EDGE ( 'NONE', *, *, #43, .T. ) ;
#326 = CARTESIAN_POINT ( 'NONE',  ( 28.99999999999999645, 0.000000000000000000, 0.000000000000000000 ) ) ;
#327 = PERSON_AND_ORGANIZATION ( #187, #298 ) ;
#328 = AXIS2_PLACEMENT_3D ( 'NONE', #258, #230, #62 ) ;
#329 = ORIENTED_EDGE ( 'NONE', *, *, #270, .T. ) ;
#330 = ORIENTED_EDGE ( 'NONE', *, *, #107, .F. ) ;
#331 = CARTESIAN_POINT ( 'NONE',  ( 0.000000000000000000, 0.000000000000000000, 0.000000000000000000 ) ) ;
#332 = LOCAL_TIME ( 18, 8, 22.00000000000000000, #272 ) ;
#333 = ORIENTED_EDGE ( 'NONE', *, *, #67, .F. ) ;
#334 = AXIS2_PLACEMENT_3D ( 'NONE', #366, #128, #129 ) ;
#335 = PERSON_AND_ORGANIZATION ( #187, #298 ) ;
#336 = ORIENTED_EDGE ( 'NONE', *, *, #147, .T. ) ;
#337 = EDGE_LOOP ( 'NONE', ( #250, #161, #206, #196 ) ) ;
#338 = DIRECTION ( 'NONE',  ( 0.000000000000000000, 0.000000000000000000, 1.000000000000000000 ) ) ;
#339 = DIRECTION ( 'NONE',  ( 0.000000000000000000, 0.000000000000000000, 1.000000000000000000 ) ) ;
#340 = DATE_AND_TIME ( #318, #232 ) ;
#341 = ORIENTED_EDGE ( 'NONE', *, *, #154, .T. ) ;
#342 = AXIS2_PLACEMENT_3D ( 'NONE', #331, #234, #210 ) ;
#343 = APPLICATION_CONTEXT ( 'configuration controlled 3d designs of mechanical parts and assemblies' ) ;
#344 = APPROVAL_PERSON_ORGANIZATION ( #15, #156, #311 ) ;
#345 = CARTESIAN_POINT ( 'NONE',  ( 28.99999999999999645, 0.000000000000000000, 0.000000000000000000 ) ) ;
#346 = FACE_BOUND ( 'NONE', #239, .T. ) ;
#347 = CARTESIAN_POINT ( 'NONE',  ( 12.00000000000000000, 0.000000000000000000, 3.000000000000000444 ) ) ;
#348 = ORIENTED_EDGE ( 'NONE', *, *, #147, .F. ) ;
#349 = DIRECTION ( 'NONE',  ( -1.000000000000000000, -0.000000000000000000, -0.000000000000000000 ) ) ;
#350 = AXIS2_PLACEMENT_3D ( 'NONE', #152, #64, #352 ) ;
#351 =( NAMED_UNIT ( * ) PLANE_ANGLE_UNIT ( ) SI_UNIT ( $, .RADIAN. ) );
#352 = DIRECTION ( 'NONE',  ( 0.000000000000000000, 0.000000000000000000, 1.000000000000000000 ) ) ;
#353 = CARTESIAN_POINT ( 'NONE',  ( 12.00000000000000000, 3.673940397442060361E-16, -3.000000000000000444 ) ) ;
#354 = CARTESIAN_POINT ( 'NONE',  ( 34.00000000000000000, 3.367778697655221505E-16, -2.500000000000000000 ) ) ;
#355 = VERTEX_POINT ( 'NONE', #248 ) ;
#356 = CARTESIAN_POINT ( 'NONE',  ( 34.00000000000000000, 3.061616997868383141E-16, -2.500000000000000000 ) ) ;
#357 = CC_DESIGN_APPROVAL ( #73, ( #33 ) ) ;
#358 = CARTESIAN_POINT ( 'NONE',  ( 0.000000000000000000, 3.673940397442060361E-16, -3.000000000000000444 ) ) ;
#359 = AXIS2_PLACEMENT_3D ( 'NONE', #4, #37, #133 ) ;
#360 = DIRECTION ( 'NONE',  ( -1.000000000000000000, -0.000000000000000000, -0.000000000000000000 ) ) ;
#361 = CIRCLE ( 'NONE', #207, 6.000000000000000000 ) ;
#362 = EDGE_LOOP ( 'NONE', ( #245, #368, #310, #278 ) ) ;
#363 = PLANE ( 'NONE',  #342 ) ;
#364 = CARTESIAN_POINT ( 'NONE',  ( 34.00000000000000000, 0.000000000000000000, 0.000000000000000000 ) ) ;
#365 = ADVANCED_FACE ( 'NONE', ( #184 ), #36, .T. ) ;
#366 = CARTESIAN_POINT ( 'NONE',  ( -19.22539334065129069, 0.000000000000000000, 0.000000000000000000 ) ) ;
#367 = CIRCLE ( 'NONE', #263, 3.000000000000000444 ) ;
#368 = ORIENTED_EDGE ( 'NONE', *, *, #211, .T. ) ;
#369 = CONICAL_SURFACE ( 'NONE', #221, 2.500000000000000000, 0.09966865249116194092 ) ;
#370 = AXIS2_PLACEMENT_3D ( 'NONE', #118, #290, #315 ) ;
#371 = AXIS2_PLACEMENT_3D ( 'NONE', #97, #265, #103 ) ;
#372 = DIRECTION ( 'NONE',  ( -1.000000000000000000, -0.000000000000000000, -0.000000000000000000 ) ) ;
#373 = PLANE ( 'NONE',  #308 ) ;
#374 = CIRCLE ( 'NONE', #29, 6.000000000000000000 ) ;
#375 = AXIS2_PLACEMENT_3D ( 'NONE', #231, #123, #259 ) ;
#376 = ORIENTED_EDGE ( 'NONE', *, *, #47, .F. ) ;
#377 = PERSON_AND_ORGANIZATION_ROLE ( 'classification_officer' ) ;
#378 = CONICAL_SURFACE ( 'NONE', #215, 5.000000000000000000, 0.1973955598498806641 ) ;
#379 = APPLICATION_PROTOCOL_DEFINITION ( 'international standard', 'config_control_design', 1994, #343 ) ;
#380 = PRODUCT_DEFINITION_SHAPE ( 'NONE', 'NONE',  #104 ) ;
#381 = DIRECTION ( 'NONE',  ( -1.000000000000000000, -0.000000000000000000, -0.000000000000000000 ) ) ;
#382 = CARTESIAN_POINT ( 'NONE',  ( 17.00000000000000000, 6.123233995736766282E-16, -5.000000000000000000 ) ) ;
#383 = VERTEX_POINT ( 'NONE', #347 ) ;
#384 = ORIENTED_EDGE ( 'NONE', *, *, #241, .T. ) ;
#385 = DIRECTION ( 'NONE',  ( -0.9805806756909202226, 0.000000000000000000, 0.1961161351381839890 ) ) ;
ENDSEC;
END-ISO-10303-21;
