ISO-10303-21;
HEADER;
FILE_DESCRIPTION(('CATIA V5 STEP Exchange'),'2;1');

FILE_NAME('D:\\AAA_piece_alcyon\\montage soupapes_moteur\\clavette soupape\\clavette de soupape moteur zurcher.stp','2024-01-15T16:27:00+00:00',('none'),('none'),'CATIA Version 5 Release 21 GA (IN-10)','CATIA V5 STEP AP203','none');

FILE_SCHEMA(('CONFIG_CONTROL_DESIGN'));

ENDSEC;
/* file written by CATIA V5R21 */
DATA;
#5=PRODUCT('clavette de soupape moteur Zurcher','','',(#2)) ;
#1=APPLICATION_CONTEXT('configuration controlled 3D design of mechanical parts and assemblies') ;
#14=PRODUCT_DEFINITION('',' ',#6,#3) ;
#16=SECURITY_CLASSIFICATION(' ',' ',#15) ;
#15=SECURITY_CLASSIFICATION_LEVEL('unclassified') ;
#47=CARTESIAN_POINT(' ',(0.,0.,0.)) ;
#52=CARTESIAN_POINT('Axis2P3D Location',(0.,0.,3.25)) ;
#57=CARTESIAN_POINT('Line Origine',(-4.34426685986,0.,0.5)) ;
#61=CARTESIAN_POINT('Vertex',(-5.47722557505,0.,0.5)) ;
#63=CARTESIAN_POINT('Vertex',(-3.21130814467,0.,0.5)) ;
#66=CARTESIAN_POINT('Axis2P3D Location',(0.,0.,0.)) ;
#70=CARTESIAN_POINT('Vertex',(1.55813300046,0.,2.85214332614)) ;
#73=CARTESIAN_POINT('Axis2P3D Location',(0.,0.,0.)) ;
#77=CARTESIAN_POINT('Vertex',(3.21130814467,0.,0.5)) ;
#80=CARTESIAN_POINT('Line Origine',(4.34426685986,0.,0.5)) ;
#84=CARTESIAN_POINT('Vertex',(5.47722557505,0.,0.5)) ;
#87=CARTESIAN_POINT('Axis2P3D Location',(0.,0.,0.)) ;
#91=CARTESIAN_POINT('Vertex',(2.63684046232,4.21300016229E-016,4.8267040904)) ;
#94=CARTESIAN_POINT('Axis2P3D Location',(0.,0.,0.)) ;
#108=CARTESIAN_POINT('Axis2P3D Location',(0.,6.,7.5)) ;
#113=CARTESIAN_POINT('Axis2P3D Location',(0.,6.,0.)) ;
#117=CARTESIAN_POINT('Vertex',(-7.48331477355,6.,0.5)) ;
#119=CARTESIAN_POINT('Vertex',(3.59569153953,6.,6.58186921418)) ;
#122=CARTESIAN_POINT('Axis2P3D Location',(0.,6.,0.)) ;
#126=CARTESIAN_POINT('Vertex',(7.48331477355,6.,0.5)) ;
#129=CARTESIAN_POINT('Line Origine',(5.34731145911,6.,0.5)) ;
#133=CARTESIAN_POINT('Vertex',(3.21130814467,6.,0.5)) ;
#136=CARTESIAN_POINT('Axis2P3D Location',(0.,6.,0.)) ;
#140=CARTESIAN_POINT('Vertex',(1.55813300046,6.,2.85214332614)) ;
#143=CARTESIAN_POINT('Axis2P3D Location',(0.,6.,0.)) ;
#147=CARTESIAN_POINT('Vertex',(-3.21130814467,6.,0.5)) ;
#150=CARTESIAN_POINT('Line Origine',(-5.34731145911,6.,0.5)) ;
#164=CARTESIAN_POINT('Axis2P3D Location',(0.,0.,0.)) ;
#169=CARTESIAN_POINT('Line Origine',(3.11626600093,3.,5.70428665229)) ;
#175=CARTESIAN_POINT('Control Point',(-5.47722557505,-4.4408920985E-016,0.5)) ;
#176=CARTESIAN_POINT('Control Point',(-6.14709347707,2.00128232992,0.5)) ;
#177=CARTESIAN_POINT('Control Point',(-6.81453021756,3.99810986075,0.5)) ;
#178=CARTESIAN_POINT('Control Point',(-7.48331477355,6.,0.5)) ;
#188=CARTESIAN_POINT('Control Point',(5.47722557505,8.881784197E-016,0.5)) ;
#189=CARTESIAN_POINT('Control Point',(6.14709347709,2.00128232996,0.5)) ;
#190=CARTESIAN_POINT('Control Point',(6.81453021755,3.99810986071,0.5)) ;
#191=CARTESIAN_POINT('Control Point',(7.48331477355,6.,0.5)) ;
#200=CARTESIAN_POINT('Axis2P3D Location',(0.,3.,0.)) ;
#205=CARTESIAN_POINT('Line Origine',(-3.21130814467,3.,0.5)) ;
#210=CARTESIAN_POINT('Line Origine',(1.55813300046,3.,2.85214332614)) ;
#222=CARTESIAN_POINT('Line Origine',(3.21130814467,3.,0.5)) ;
#234=CARTESIAN_POINT('Axis2P3D Location',(9.60038471222,0.,0.5)) ;
#257=CARTESIAN_POINT('Axis2P3D Location',(0.,0.,0.)) ;
#261=CARTESIAN_POINT('Vertex',(3.21130814467,0.,-0.5)) ;
#263=CARTESIAN_POINT('Vertex',(-1.55813300046,0.,-2.85214332614)) ;
#266=CARTESIAN_POINT('Axis2P3D Location',(0.,0.,0.)) ;
#270=CARTESIAN_POINT('Vertex',(-3.21130814467,0.,-0.5)) ;
#273=CARTESIAN_POINT('Line Origine',(-4.34426685986,0.,-0.5)) ;
#277=CARTESIAN_POINT('Vertex',(-5.47722557505,0.,-0.5)) ;
#280=CARTESIAN_POINT('Axis2P3D Location',(0.,0.,0.)) ;
#284=CARTESIAN_POINT('Vertex',(-2.63684046232,4.21300016229E-016,-4.8267040904)) ;
#287=CARTESIAN_POINT('Axis2P3D Location',(0.,0.,0.)) ;
#291=CARTESIAN_POINT('Vertex',(5.47722557505,0.,-0.5)) ;
#294=CARTESIAN_POINT('Line Origine',(4.34426685986,0.,-0.5)) ;
#308=CARTESIAN_POINT('Line Origine',(-3.11626600093,3.,-5.70428665229)) ;
#312=CARTESIAN_POINT('Vertex',(-3.59569153953,6.,-6.58186921418)) ;
#315=CARTESIAN_POINT('Axis2P3D Location',(0.,6.,0.)) ;
#319=CARTESIAN_POINT('Vertex',(7.48331477355,6.,-0.5)) ;
#323=CARTESIAN_POINT('Control Point',(5.47722557505,-4.4408920985E-016,-0.5)) ;
#324=CARTESIAN_POINT('Control Point',(6.14709347688,2.00128232935,-0.5)) ;
#325=CARTESIAN_POINT('Control Point',(6.81453021775,3.99810986132,-0.5)) ;
#326=CARTESIAN_POINT('Control Point',(7.48331477355,6.,-0.5)) ;
#335=CARTESIAN_POINT('Axis2P3D Location',(0.,6.,0.)) ;
#339=CARTESIAN_POINT('Vertex',(-7.48331477355,6.,-0.5)) ;
#343=CARTESIAN_POINT('Control Point',(-5.47722557505,4.4408920985E-016,-0.5)) ;
#344=CARTESIAN_POINT('Control Point',(-6.14709347708,2.00128232995,-0.5)) ;
#345=CARTESIAN_POINT('Control Point',(-6.81453021755,3.99810986072,-0.5)) ;
#346=CARTESIAN_POINT('Control Point',(-7.48331477355,6.,-0.5)) ;
#355=CARTESIAN_POINT('Line Origine',(-3.21130814467,3.,-0.5)) ;
#359=CARTESIAN_POINT('Vertex',(-3.21130814467,6.,-0.5)) ;
#362=CARTESIAN_POINT('Line Origine',(-1.55813300046,3.,-2.85214332614)) ;
#366=CARTESIAN_POINT('Vertex',(-1.55813300046,6.,-2.85214332614)) ;
#369=CARTESIAN_POINT('Axis2P3D Location',(0.,6.,0.)) ;
#381=CARTESIAN_POINT('Line Origine',(3.21130814467,3.,-0.5)) ;
#385=CARTESIAN_POINT('Vertex',(3.21130814467,6.,-0.5)) ;
#388=CARTESIAN_POINT('Axis2P3D Location',(0.,6.,0.)) ;
#400=CARTESIAN_POINT('Line Origine',(5.34731145911,6.,-0.5)) ;
#405=CARTESIAN_POINT('Line Origine',(-5.34731145911,6.,-0.5)) ;
#419=CARTESIAN_POINT('Axis2P3D Location',(-10.2738695145,0.,-0.5)) ;
#53=DIRECTION('Axis2P3D Direction',(0.,1.,0.)) ;
#54=DIRECTION('Axis2P3D XDirection',(1.,-0.,0.)) ;
#58=DIRECTION('Vector Direction',(1.,0.,0.)) ;
#67=DIRECTION('Axis2P3D Direction',(0.,1.,0.)) ;
#74=DIRECTION('Axis2P3D Direction',(0.,1.,0.)) ;
#81=DIRECTION('Vector Direction',(1.,0.,0.)) ;
#88=DIRECTION('Axis2P3D Direction',(0.,1.,0.)) ;
#95=DIRECTION('Axis2P3D Direction',(0.,1.,0.)) ;
#109=DIRECTION('Axis2P3D Direction',(0.,1.,0.)) ;
#110=DIRECTION('Axis2P3D XDirection',(1.,-0.,0.)) ;
#114=DIRECTION('Axis2P3D Direction',(0.,1.,0.)) ;
#123=DIRECTION('Axis2P3D Direction',(0.,1.,0.)) ;
#130=DIRECTION('Vector Direction',(1.,0.,0.)) ;
#137=DIRECTION('Axis2P3D Direction',(0.,1.,0.)) ;
#144=DIRECTION('Axis2P3D Direction',(0.,1.,0.)) ;
#151=DIRECTION('Vector Direction',(1.,0.,0.)) ;
#165=DIRECTION('Axis2P3D Direction',(0.,1.,0.)) ;
#166=DIRECTION('Axis2P3D XDirection',(0.479425538604,0.,0.87758256189)) ;
#170=DIRECTION('Vector Direction',(0.151607667044,0.948683298051,0.277515973042)) ;
#201=DIRECTION('Axis2P3D Direction',(0.,1.,0.)) ;
#202=DIRECTION('Axis2P3D XDirection',(0.479425538604,-0.,0.87758256189)) ;
#206=DIRECTION('Vector Direction',(0.,1.,0.)) ;
#211=DIRECTION('Vector Direction',(0.,1.,0.)) ;
#223=DIRECTION('Vector Direction',(0.,1.,0.)) ;
#235=DIRECTION('Axis2P3D Direction',(0.,0.,-1.)) ;
#236=DIRECTION('Axis2P3D XDirection',(-1.,0.,0.)) ;
#258=DIRECTION('Axis2P3D Direction',(0.,1.,0.)) ;
#267=DIRECTION('Axis2P3D Direction',(0.,1.,0.)) ;
#274=DIRECTION('Vector Direction',(1.,0.,0.)) ;
#281=DIRECTION('Axis2P3D Direction',(0.,1.,0.)) ;
#288=DIRECTION('Axis2P3D Direction',(0.,1.,0.)) ;
#295=DIRECTION('Vector Direction',(1.,0.,0.)) ;
#309=DIRECTION('Vector Direction',(-0.151607667044,0.948683298051,-0.277515973042)) ;
#316=DIRECTION('Axis2P3D Direction',(0.,1.,0.)) ;
#336=DIRECTION('Axis2P3D Direction',(0.,1.,0.)) ;
#356=DIRECTION('Vector Direction',(0.,1.,0.)) ;
#363=DIRECTION('Vector Direction',(0.,1.,0.)) ;
#370=DIRECTION('Axis2P3D Direction',(0.,1.,0.)) ;
#382=DIRECTION('Vector Direction',(0.,1.,0.)) ;
#389=DIRECTION('Axis2P3D Direction',(0.,1.,0.)) ;
#401=DIRECTION('Vector Direction',(1.,0.,0.)) ;
#406=DIRECTION('Vector Direction',(1.,0.,0.)) ;
#420=DIRECTION('Axis2P3D Direction',(0.,0.,1.)) ;
#421=DIRECTION('Axis2P3D XDirection',(1.,0.,0.)) ;
#48=AXIS2_PLACEMENT_3D(' ',#47,$,$) ;
#55=AXIS2_PLACEMENT_3D('Plane Axis2P3D',#52,#53,#54) ;
#68=AXIS2_PLACEMENT_3D('Circle Axis2P3D',#66,#67,$) ;
#75=AXIS2_PLACEMENT_3D('Circle Axis2P3D',#73,#74,$) ;
#89=AXIS2_PLACEMENT_3D('Circle Axis2P3D',#87,#88,$) ;
#96=AXIS2_PLACEMENT_3D('Circle Axis2P3D',#94,#95,$) ;
#111=AXIS2_PLACEMENT_3D('Plane Axis2P3D',#108,#109,#110) ;
#115=AXIS2_PLACEMENT_3D('Circle Axis2P3D',#113,#114,$) ;
#124=AXIS2_PLACEMENT_3D('Circle Axis2P3D',#122,#123,$) ;
#138=AXIS2_PLACEMENT_3D('Circle Axis2P3D',#136,#137,$) ;
#145=AXIS2_PLACEMENT_3D('Circle Axis2P3D',#143,#144,$) ;
#167=AXIS2_PLACEMENT_3D('Cone Axis2P3D',#164,#165,#166) ;
#203=AXIS2_PLACEMENT_3D('Cylinder Axis2P3D',#200,#201,#202) ;
#237=AXIS2_PLACEMENT_3D('Plane Axis2P3D',#234,#235,#236) ;
#259=AXIS2_PLACEMENT_3D('Circle Axis2P3D',#257,#258,$) ;
#268=AXIS2_PLACEMENT_3D('Circle Axis2P3D',#266,#267,$) ;
#282=AXIS2_PLACEMENT_3D('Circle Axis2P3D',#280,#281,$) ;
#289=AXIS2_PLACEMENT_3D('Circle Axis2P3D',#287,#288,$) ;
#317=AXIS2_PLACEMENT_3D('Circle Axis2P3D',#315,#316,$) ;
#337=AXIS2_PLACEMENT_3D('Circle Axis2P3D',#335,#336,$) ;
#371=AXIS2_PLACEMENT_3D('Circle Axis2P3D',#369,#370,$) ;
#390=AXIS2_PLACEMENT_3D('Circle Axis2P3D',#388,#389,$) ;
#422=AXIS2_PLACEMENT_3D('Plane Axis2P3D',#419,#420,#421) ;
#40=PRODUCT_DEFINITION_SHAPE(' ',' ',#14) ;
#31=APPROVAL_PERSON_ORGANIZATION(#25,#21,#19) ;
#25=PERSON_AND_ORGANIZATION(#22,#23) ;
#22=PERSON(' ',' ',' ',$,$,$) ;
#23=ORGANIZATION(' ',' ',' ') ;
#21=APPROVAL(#20,' ') ;
#20=APPROVAL_STATUS('not_yet_approved') ;
#19=APPROVAL_ROLE('APPROVER') ;
#13=DATE_AND_TIME(#11,#12) ;
#12=LOCAL_TIME(17,27,0.,#10) ;
#10=COORDINATED_UNIVERSAL_TIME_OFFSET(0,0,.AHEAD.) ;
#100=ORIENTED_EDGE('',*,*,#65,.T.) ;
#101=ORIENTED_EDGE('',*,*,#72,.T.) ;
#102=ORIENTED_EDGE('',*,*,#79,.T.) ;
#103=ORIENTED_EDGE('',*,*,#86,.T.) ;
#104=ORIENTED_EDGE('',*,*,#93,.F.) ;
#105=ORIENTED_EDGE('',*,*,#98,.F.) ;
#156=ORIENTED_EDGE('',*,*,#121,.T.) ;
#157=ORIENTED_EDGE('',*,*,#128,.T.) ;
#158=ORIENTED_EDGE('',*,*,#135,.F.) ;
#159=ORIENTED_EDGE('',*,*,#142,.F.) ;
#160=ORIENTED_EDGE('',*,*,#149,.F.) ;
#161=ORIENTED_EDGE('',*,*,#154,.F.) ;
#181=ORIENTED_EDGE('',*,*,#98,.T.) ;
#182=ORIENTED_EDGE('',*,*,#173,.F.) ;
#183=ORIENTED_EDGE('',*,*,#121,.F.) ;
#184=ORIENTED_EDGE('',*,*,#179,.F.) ;
#194=ORIENTED_EDGE('',*,*,#128,.F.) ;
#195=ORIENTED_EDGE('',*,*,#173,.T.) ;
#196=ORIENTED_EDGE('',*,*,#93,.T.) ;
#197=ORIENTED_EDGE('',*,*,#192,.T.) ;
#216=ORIENTED_EDGE('',*,*,#209,.T.) ;
#217=ORIENTED_EDGE('',*,*,#149,.T.) ;
#218=ORIENTED_EDGE('',*,*,#214,.F.) ;
#219=ORIENTED_EDGE('',*,*,#72,.F.) ;
#228=ORIENTED_EDGE('',*,*,#226,.F.) ;
#229=ORIENTED_EDGE('',*,*,#79,.F.) ;
#230=ORIENTED_EDGE('',*,*,#214,.T.) ;
#231=ORIENTED_EDGE('',*,*,#142,.T.) ;
#240=ORIENTED_EDGE('',*,*,#192,.F.) ;
#241=ORIENTED_EDGE('',*,*,#86,.F.) ;
#242=ORIENTED_EDGE('',*,*,#226,.T.) ;
#243=ORIENTED_EDGE('',*,*,#135,.T.) ;
#247=ORIENTED_EDGE('',*,*,#154,.T.) ;
#248=ORIENTED_EDGE('',*,*,#209,.F.) ;
#249=ORIENTED_EDGE('',*,*,#65,.F.) ;
#250=ORIENTED_EDGE('',*,*,#179,.T.) ;
#300=ORIENTED_EDGE('',*,*,#265,.T.) ;
#301=ORIENTED_EDGE('',*,*,#272,.T.) ;
#302=ORIENTED_EDGE('',*,*,#279,.F.) ;
#303=ORIENTED_EDGE('',*,*,#286,.F.) ;
#304=ORIENTED_EDGE('',*,*,#293,.F.) ;
#305=ORIENTED_EDGE('',*,*,#298,.F.) ;
#329=ORIENTED_EDGE('',*,*,#293,.T.) ;
#330=ORIENTED_EDGE('',*,*,#314,.F.) ;
#331=ORIENTED_EDGE('',*,*,#321,.F.) ;
#332=ORIENTED_EDGE('',*,*,#327,.F.) ;
#349=ORIENTED_EDGE('',*,*,#341,.F.) ;
#350=ORIENTED_EDGE('',*,*,#314,.T.) ;
#351=ORIENTED_EDGE('',*,*,#286,.T.) ;
#352=ORIENTED_EDGE('',*,*,#347,.T.) ;
#375=ORIENTED_EDGE('',*,*,#361,.F.) ;
#376=ORIENTED_EDGE('',*,*,#272,.F.) ;
#377=ORIENTED_EDGE('',*,*,#368,.T.) ;
#378=ORIENTED_EDGE('',*,*,#373,.T.) ;
#394=ORIENTED_EDGE('',*,*,#387,.T.) ;
#395=ORIENTED_EDGE('',*,*,#392,.T.) ;
#396=ORIENTED_EDGE('',*,*,#368,.F.) ;
#397=ORIENTED_EDGE('',*,*,#265,.F.) ;
#411=ORIENTED_EDGE('',*,*,#404,.T.) ;
#412=ORIENTED_EDGE('',*,*,#321,.T.) ;
#413=ORIENTED_EDGE('',*,*,#341,.T.) ;
#414=ORIENTED_EDGE('',*,*,#409,.T.) ;
#415=ORIENTED_EDGE('',*,*,#373,.F.) ;
#416=ORIENTED_EDGE('',*,*,#392,.F.) ;
#425=ORIENTED_EDGE('',*,*,#404,.F.) ;
#426=ORIENTED_EDGE('',*,*,#387,.F.) ;
#427=ORIENTED_EDGE('',*,*,#298,.T.) ;
#428=ORIENTED_EDGE('',*,*,#327,.T.) ;
#432=ORIENTED_EDGE('',*,*,#347,.F.) ;
#433=ORIENTED_EDGE('',*,*,#279,.T.) ;
#434=ORIENTED_EDGE('',*,*,#361,.T.) ;
#435=ORIENTED_EDGE('',*,*,#409,.F.) ;
#51=CLOSED_SHELL('Closed Shell',(#107,#163,#186,#199,#221,#233,#245,#252)) ;
#256=CLOSED_SHELL('Closed Shell',(#307,#334,#354,#380,#399,#418,#430,#437)) ;
#59=VECTOR('Line Direction',#58,1.) ;
#82=VECTOR('Line Direction',#81,1.) ;
#131=VECTOR('Line Direction',#130,1.) ;
#152=VECTOR('Line Direction',#151,1.) ;
#171=VECTOR('Line Direction',#170,1.) ;
#207=VECTOR('Line Direction',#206,1.) ;
#212=VECTOR('Line Direction',#211,1.) ;
#224=VECTOR('Line Direction',#223,1.) ;
#275=VECTOR('Line Direction',#274,1.) ;
#296=VECTOR('Line Direction',#295,1.) ;
#310=VECTOR('Line Direction',#309,1.) ;
#357=VECTOR('Line Direction',#356,1.) ;
#364=VECTOR('Line Direction',#363,1.) ;
#383=VECTOR('Line Direction',#382,1.) ;
#402=VECTOR('Line Direction',#401,1.) ;
#407=VECTOR('Line Direction',#406,1.) ;
#254=ADVANCED_BREP_SHAPE_REPRESENTATION('NONE',(#253,#438),#46) ;
#49=SHAPE_REPRESENTATION(' ',(#48),#46) ;
#107=ADVANCED_FACE('Corps principal',(#106),#56,.F.) ;
#163=ADVANCED_FACE('Corps principal',(#162),#112,.T.) ;
#186=ADVANCED_FACE('Corps principal',(#185),#168,.T.) ;
#199=ADVANCED_FACE('Corps principal',(#198),#168,.T.) ;
#221=ADVANCED_FACE('Corps principal',(#220),#204,.F.) ;
#233=ADVANCED_FACE('Corps principal',(#232),#204,.F.) ;
#245=ADVANCED_FACE('Corps principal',(#244),#238,.T.) ;
#252=ADVANCED_FACE('Corps principal',(#251),#238,.T.) ;
#307=ADVANCED_FACE('Corps principal',(#306),#56,.F.) ;
#334=ADVANCED_FACE('Corps principal',(#333),#168,.T.) ;
#354=ADVANCED_FACE('Corps principal',(#353),#168,.T.) ;
#380=ADVANCED_FACE('Corps principal',(#379),#204,.F.) ;
#399=ADVANCED_FACE('Corps principal',(#398),#204,.F.) ;
#418=ADVANCED_FACE('Corps principal',(#417),#112,.T.) ;
#430=ADVANCED_FACE('Corps principal',(#429),#423,.T.) ;
#437=ADVANCED_FACE('Corps principal',(#436),#423,.T.) ;
#4=APPLICATION_PROTOCOL_DEFINITION('international standard','config_control_design',1994,#1) ;
#32=APPROVAL_DATE_TIME(#13,#21) ;
#174=B_SPLINE_CURVE_WITH_KNOTS('',3,(#175,#176,#177,#178),.UNSPECIFIED.,.F.,.U.,(4,4),(0.,8.95447438803),.UNSPECIFIED.) ;
#187=B_SPLINE_CURVE_WITH_KNOTS('',3,(#188,#189,#190,#191),.UNSPECIFIED.,.F.,.U.,(4,4),(0.,8.95447438822),.UNSPECIFIED.) ;
#322=B_SPLINE_CURVE_WITH_KNOTS('',3,(#323,#324,#325,#326),.UNSPECIFIED.,.F.,.U.,(4,4),(0.,8.95447438549),.UNSPECIFIED.) ;
#342=B_SPLINE_CURVE_WITH_KNOTS('',3,(#343,#344,#345,#346),.UNSPECIFIED.,.F.,.U.,(4,4),(0.,8.95447438818),.UNSPECIFIED.) ;
#253=MANIFOLD_SOLID_BREP('Corps principal.1',#51) ;
#438=MANIFOLD_SOLID_BREP('Corps principal.2',#256) ;
#11=CALENDAR_DATE(2024,15,1) ;
#30=CC_DESIGN_APPROVAL(#21,(#16,#6,#14)) ;
#18=CC_DESIGN_DATE_AND_TIME_ASSIGNMENT(#13,#17,(#16)) ;
#29=CC_DESIGN_DATE_AND_TIME_ASSIGNMENT(#13,#28,(#14)) ;
#17=DATE_TIME_ROLE('classification_date') ;
#28=DATE_TIME_ROLE('creation_date') ;
#27=CC_DESIGN_PERSON_AND_ORGANIZATION_ASSIGNMENT(#25,#26,(#16)) ;
#33=CC_DESIGN_PERSON_AND_ORGANIZATION_ASSIGNMENT(#25,#34,(#6)) ;
#35=CC_DESIGN_PERSON_AND_ORGANIZATION_ASSIGNMENT(#25,#36,(#6,#14)) ;
#37=CC_DESIGN_PERSON_AND_ORGANIZATION_ASSIGNMENT(#25,#38,(#5)) ;
#26=PERSON_AND_ORGANIZATION_ROLE('classification_officer') ;
#34=PERSON_AND_ORGANIZATION_ROLE('design_supplier') ;
#36=PERSON_AND_ORGANIZATION_ROLE('creator') ;
#38=PERSON_AND_ORGANIZATION_ROLE('design_owner') ;
#39=CC_DESIGN_SECURITY_CLASSIFICATION(#16,(#6)) ;
#69=CIRCLE('generated circle',#68,3.25) ;
#76=CIRCLE('generated circle',#75,3.25) ;
#90=CIRCLE('generated circle',#89,5.5) ;
#97=CIRCLE('generated circle',#96,5.5) ;
#116=CIRCLE('generated circle',#115,7.5) ;
#125=CIRCLE('generated circle',#124,7.5) ;
#139=CIRCLE('generated circle',#138,3.25) ;
#146=CIRCLE('generated circle',#145,3.25) ;
#260=CIRCLE('generated circle',#259,3.25) ;
#269=CIRCLE('generated circle',#268,3.25) ;
#283=CIRCLE('generated circle',#282,5.5) ;
#290=CIRCLE('generated circle',#289,5.5) ;
#318=CIRCLE('generated circle',#317,7.5) ;
#338=CIRCLE('generated circle',#337,7.5) ;
#372=CIRCLE('generated circle',#371,3.25) ;
#391=CIRCLE('generated circle',#390,3.25) ;
#168=CONICAL_SURFACE('Cone',#167,5.5,0.321750554397) ;
#255=SHAPE_REPRESENTATION_RELATIONSHIP(' ',' ',#49,#254) ;
#204=CYLINDRICAL_SURFACE('generated cylinder',#203,3.25) ;
#3=DESIGN_CONTEXT(' ',#1,'design') ;
#65=EDGE_CURVE('',#62,#64,#60,.T.) ;
#72=EDGE_CURVE('',#64,#71,#69,.T.) ;
#79=EDGE_CURVE('',#71,#78,#76,.T.) ;
#86=EDGE_CURVE('',#78,#85,#83,.T.) ;
#93=EDGE_CURVE('',#92,#85,#90,.T.) ;
#98=EDGE_CURVE('',#62,#92,#97,.T.) ;
#121=EDGE_CURVE('',#118,#120,#116,.T.) ;
#128=EDGE_CURVE('',#120,#127,#125,.T.) ;
#135=EDGE_CURVE('',#134,#127,#132,.T.) ;
#142=EDGE_CURVE('',#141,#134,#139,.T.) ;
#149=EDGE_CURVE('',#148,#141,#146,.T.) ;
#154=EDGE_CURVE('',#118,#148,#153,.T.) ;
#173=EDGE_CURVE('',#120,#92,#172,.F.) ;
#179=EDGE_CURVE('',#62,#118,#174,.T.) ;
#192=EDGE_CURVE('',#85,#127,#187,.T.) ;
#209=EDGE_CURVE('',#64,#148,#208,.T.) ;
#214=EDGE_CURVE('',#71,#141,#213,.T.) ;
#226=EDGE_CURVE('',#78,#134,#225,.T.) ;
#265=EDGE_CURVE('',#262,#264,#260,.T.) ;
#272=EDGE_CURVE('',#264,#271,#269,.T.) ;
#279=EDGE_CURVE('',#278,#271,#276,.T.) ;
#286=EDGE_CURVE('',#285,#278,#283,.T.) ;
#293=EDGE_CURVE('',#292,#285,#290,.T.) ;
#298=EDGE_CURVE('',#262,#292,#297,.T.) ;
#314=EDGE_CURVE('',#313,#285,#311,.F.) ;
#321=EDGE_CURVE('',#320,#313,#318,.T.) ;
#327=EDGE_CURVE('',#292,#320,#322,.T.) ;
#341=EDGE_CURVE('',#313,#340,#338,.T.) ;
#347=EDGE_CURVE('',#278,#340,#342,.T.) ;
#361=EDGE_CURVE('',#271,#360,#358,.T.) ;
#368=EDGE_CURVE('',#264,#367,#365,.T.) ;
#373=EDGE_CURVE('',#367,#360,#372,.T.) ;
#387=EDGE_CURVE('',#262,#386,#384,.T.) ;
#392=EDGE_CURVE('',#386,#367,#391,.T.) ;
#404=EDGE_CURVE('',#386,#320,#403,.T.) ;
#409=EDGE_CURVE('',#340,#360,#408,.T.) ;
#99=EDGE_LOOP('',(#100,#101,#102,#103,#104,#105)) ;
#155=EDGE_LOOP('',(#156,#157,#158,#159,#160,#161)) ;
#180=EDGE_LOOP('',(#181,#182,#183,#184)) ;
#193=EDGE_LOOP('',(#194,#195,#196,#197)) ;
#215=EDGE_LOOP('',(#216,#217,#218,#219)) ;
#227=EDGE_LOOP('',(#228,#229,#230,#231)) ;
#239=EDGE_LOOP('',(#240,#241,#242,#243)) ;
#246=EDGE_LOOP('',(#247,#248,#249,#250)) ;
#299=EDGE_LOOP('',(#300,#301,#302,#303,#304,#305)) ;
#328=EDGE_LOOP('',(#329,#330,#331,#332)) ;
#348=EDGE_LOOP('',(#349,#350,#351,#352)) ;
#374=EDGE_LOOP('',(#375,#376,#377,#378)) ;
#393=EDGE_LOOP('',(#394,#395,#396,#397)) ;
#410=EDGE_LOOP('',(#411,#412,#413,#414,#415,#416)) ;
#424=EDGE_LOOP('',(#425,#426,#427,#428)) ;
#431=EDGE_LOOP('',(#432,#433,#434,#435)) ;
#106=FACE_OUTER_BOUND('',#99,.T.) ;
#162=FACE_OUTER_BOUND('',#155,.T.) ;
#185=FACE_OUTER_BOUND('',#180,.T.) ;
#198=FACE_OUTER_BOUND('',#193,.T.) ;
#220=FACE_OUTER_BOUND('',#215,.T.) ;
#232=FACE_OUTER_BOUND('',#227,.T.) ;
#244=FACE_OUTER_BOUND('',#239,.T.) ;
#251=FACE_OUTER_BOUND('',#246,.T.) ;
#306=FACE_OUTER_BOUND('',#299,.T.) ;
#333=FACE_OUTER_BOUND('',#328,.T.) ;
#353=FACE_OUTER_BOUND('',#348,.T.) ;
#379=FACE_OUTER_BOUND('',#374,.T.) ;
#398=FACE_OUTER_BOUND('',#393,.T.) ;
#417=FACE_OUTER_BOUND('',#410,.T.) ;
#429=FACE_OUTER_BOUND('',#424,.T.) ;
#436=FACE_OUTER_BOUND('',#431,.T.) ;
#45=UNCERTAINTY_MEASURE_WITH_UNIT(LENGTH_MEASURE(0.005),#41,'distance_accuracy_value','CONFUSED CURVE UNCERTAINTY') ;
#60=LINE('Line',#57,#59) ;
#83=LINE('Line',#80,#82) ;
#132=LINE('Line',#129,#131) ;
#153=LINE('Line',#150,#152) ;
#172=LINE('Line',#169,#171) ;
#208=LINE('Line',#205,#207) ;
#213=LINE('Line',#210,#212) ;
#225=LINE('Line',#222,#224) ;
#276=LINE('Line',#273,#275) ;
#297=LINE('Line',#294,#296) ;
#311=LINE('Line',#308,#310) ;
#358=LINE('Line',#355,#357) ;
#365=LINE('Line',#362,#364) ;
#384=LINE('Line',#381,#383) ;
#403=LINE('Line',#400,#402) ;
#408=LINE('Line',#405,#407) ;
#2=MECHANICAL_CONTEXT(' ',#1,'mechanical') ;
#24=PERSONAL_ADDRESS(' ',' ',' ',' ',' ',' ',' ',' ',' ',' ',' ',' ',(#22),' ') ;
#56=PLANE('',#55) ;
#112=PLANE('',#111) ;
#238=PLANE('',#237) ;
#423=PLANE('',#422) ;
#43=PLANE_ANGLE_MEASURE_WITH_UNIT(PLANE_ANGLE_MEASURE(0.0174532925199),#42) ;
#7=PRODUCT_CATEGORY('part',$) ;
#9=PRODUCT_CATEGORY_RELATIONSHIP(' ',' ',#7,#8) ;
#6=PRODUCT_DEFINITION_FORMATION_WITH_SPECIFIED_SOURCE('',' ',#5,.NOT_KNOWN.) ;
#8=PRODUCT_RELATED_PRODUCT_CATEGORY('detail',$,(#5)) ;
#50=SHAPE_DEFINITION_REPRESENTATION(#40,#49) ;
#62=VERTEX_POINT('',#61) ;
#64=VERTEX_POINT('',#63) ;
#71=VERTEX_POINT('',#70) ;
#78=VERTEX_POINT('',#77) ;
#85=VERTEX_POINT('',#84) ;
#92=VERTEX_POINT('',#91) ;
#118=VERTEX_POINT('',#117) ;
#120=VERTEX_POINT('',#119) ;
#127=VERTEX_POINT('',#126) ;
#134=VERTEX_POINT('',#133) ;
#141=VERTEX_POINT('',#140) ;
#148=VERTEX_POINT('',#147) ;
#262=VERTEX_POINT('',#261) ;
#264=VERTEX_POINT('',#263) ;
#271=VERTEX_POINT('',#270) ;
#278=VERTEX_POINT('',#277) ;
#285=VERTEX_POINT('',#284) ;
#292=VERTEX_POINT('',#291) ;
#313=VERTEX_POINT('',#312) ;
#320=VERTEX_POINT('',#319) ;
#340=VERTEX_POINT('',#339) ;
#360=VERTEX_POINT('',#359) ;
#367=VERTEX_POINT('',#366) ;
#386=VERTEX_POINT('',#385) ;
#41=(LENGTH_UNIT()NAMED_UNIT(*)SI_UNIT(.MILLI.,.METRE.)) ;
#42=(NAMED_UNIT(*)PLANE_ANGLE_UNIT()SI_UNIT($,.RADIAN.)) ;
#44=(NAMED_UNIT(*)SI_UNIT($,.STERADIAN.)SOLID_ANGLE_UNIT()) ;
#46=(GEOMETRIC_REPRESENTATION_CONTEXT(3)GLOBAL_UNCERTAINTY_ASSIGNED_CONTEXT((#45))GLOBAL_UNIT_ASSIGNED_CONTEXT((#41,#42,#44))REPRESENTATION_CONTEXT(' ',' ')) ;
ENDSEC;
END-ISO-10303-21;
