ISO-10303-21;
HEADER;
FILE_DESCRIPTION (( 'STEP AP203' ),
    '1' );
FILE_NAME ('OTL02I.STEP',
    '2024-01-17T17:09:23',
    ( '' ),
    ( '' ),
    'SwSTEP 2.0',
    'SolidWorks 2018',
    '' );
FILE_SCHEMA (( 'CONFIG_CONTROL_DESIGN' ));
ENDSEC;

DATA;
#1 = AXIS2_PLACEMENT_3D ( 'NONE', #204, #111, #348 ) ;
#2 = ORIENTED_EDGE ( 'NONE', *, *, #191, .F. ) ;
#3 = EDGE_CURVE ( 'NONE', #329, #95, #245, .T. ) ;
#4 = CIRCLE ( 'NONE', #56, 4.000000000000000000 ) ;
#5 = FACE_BOUND ( 'NONE', #114, .T. ) ;
#6 = CARTESIAN_POINT ( 'NONE',  ( -19.22539334065129069, 0.000000000000000000, 0.000000000000000000 ) ) ;
#7 = AXIS2_PLACEMENT_3D ( 'NONE', #141, #337, #12 ) ;
#8 = DIRECTION ( 'NONE',  ( -1.000000000000000000, -0.000000000000000000, -0.000000000000000000 ) ) ;
#9 = FACE_OUTER_BOUND ( 'NONE', #361, .T. ) ;
#10 = ORIENTED_EDGE ( 'NONE', *, *, #333, .F. ) ;
#11 = DIRECTION ( 'NONE',  ( 0.000000000000000000, 0.000000000000000000, 1.000000000000000000 ) ) ;
#12 = DIRECTION ( 'NONE',  ( 0.000000000000000000, 0.000000000000000000, 1.000000000000000000 ) ) ;
#13 = AXIS2_PLACEMENT_3D ( 'NONE', #223, #303, #131 ) ;
#14 = APPROVAL_PERSON_ORGANIZATION ( #197, #299, #217 ) ;
#15 = CARTESIAN_POINT ( 'NONE',  ( 34.00000000000000000, 0.000000000000000000, 4.000000000000000000 ) ) ;
#16 = DIRECTION ( 'NONE',  ( 0.000000000000000000, 0.000000000000000000, 1.000000000000000000 ) ) ;
#17 = CIRCLE ( 'NONE', #41, 3.000000000000000444 ) ;
#18 = CLOSED_SHELL ( 'NONE', ( #237, #126, #242, #54, #318, #122, #80, #219, #212, #124, #321, #350 ) ) ;
#19 = CARTESIAN_POINT ( 'NONE',  ( 12.00000000000000000, 0.000000000000000000, 3.000000000000000444 ) ) ;
#20 = EDGE_CURVE ( 'NONE', #51, #35, #330, .T. ) ;
#21 = CARTESIAN_POINT ( 'NONE',  ( 0.000000000000000000, 0.000000000000000000, 0.000000000000000000 ) ) ;
#22 = DIRECTION ( 'NONE',  ( 0.000000000000000000, 0.000000000000000000, 1.000000000000000000 ) ) ;
#23 = CARTESIAN_POINT ( 'NONE',  ( 17.00000000000000000, 4.898587196589412829E-16, -4.000000000000000000 ) ) ;
#24 = ORIENTED_EDGE ( 'NONE', *, *, #70, .T. ) ;
#25 = APPROVAL_DATE_TIME ( #59, #299 ) ;
#26 = ORIENTED_EDGE ( 'NONE', *, *, #370, .F. ) ;
#27 = LINE ( 'NONE', #305, #86 ) ;
#28 = APPLICATION_CONTEXT ( 'configuration controlled 3d designs of mechanical parts and assemblies' ) ;
#29 = APPLICATION_PROTOCOL_DEFINITION ( 'international standard', 'config_control_design', 1994, #28 ) ;
#30 = LOCAL_TIME ( 18, 9, 23.00000000000000000, #343 ) ;
#31 = EDGE_CURVE ( 'NONE', #36, #214, #27, .T. ) ;
#32 = CONICAL_SURFACE ( 'NONE', #132, 3.500000000000000000, 0.09966865249116207970 ) ;
#33 = ORIENTED_EDGE ( 'NONE', *, *, #220, .T. ) ;
#34 = CIRCLE ( 'NONE', #37, 7.000000000000000000 ) ;
#35 = VERTEX_POINT ( 'NONE', #72 ) ;
#36 = VERTEX_POINT ( 'NONE', #134 ) ;
#37 = AXIS2_PLACEMENT_3D ( 'NONE', #247, #366, #42 ) ;
#38 = CARTESIAN_POINT ( 'NONE',  ( 17.00000000000000000, 0.000000000000000000, 0.000000000000000000 ) ) ;
#39 = CALENDAR_DATE ( 2024, 17, 1 ) ;
#40 = EDGE_LOOP ( 'NONE', ( #24, #145, #221, #210 ) ) ;
#41 = AXIS2_PLACEMENT_3D ( 'NONE', #310, #144, #341 ) ;
#42 = DIRECTION ( 'NONE',  ( 0.000000000000000000, 0.000000000000000000, 1.000000000000000000 ) ) ;
#43 = CARTESIAN_POINT ( 'NONE',  ( 17.00000000000000000, 6.000000000000000000, 0.000000000000000000 ) ) ;
#44 = ORIENTED_EDGE ( 'NONE', *, *, #225, .F. ) ;
#45 = COORDINATED_UNIVERSAL_TIME_OFFSET ( 1, 0, .AHEAD. ) ;
#46 = EDGE_LOOP ( 'NONE', ( #301, #358, #120, #82 ) ) ;
#47 = CARTESIAN_POINT ( 'NONE',  ( 17.00000000000000000, 0.000000000000000000, 0.000000000000000000 ) ) ;
#48 = DIRECTION ( 'NONE',  ( -1.000000000000000000, -0.000000000000000000, -0.000000000000000000 ) ) ;
#49 = ORIENTED_EDGE ( 'NONE', *, *, #3, .T. ) ;
#50 = CARTESIAN_POINT ( 'NONE',  ( 39.00000000000000000, 0.000000000000000000, 3.500000000000000000 ) ) ;
#51 = VERTEX_POINT ( 'NONE', #138 ) ;
#52 = EDGE_CURVE ( 'NONE', #51, #309, #254, .T. ) ;
#53 = DIRECTION ( 'NONE',  ( -1.000000000000000000, -0.000000000000000000, -0.000000000000000000 ) ) ;
#54 = ADVANCED_FACE ( 'NONE', ( #172 ), #240, .T. ) ;
#55 = CONICAL_SURFACE ( 'NONE', #249, 6.000000000000000000, 0.1973955598498806641 ) ;
#56 = AXIS2_PLACEMENT_3D ( 'NONE', #38, #68, #332 ) ;
#57 = DIRECTION ( 'NONE',  ( -1.000000000000000000, -0.000000000000000000, -0.000000000000000000 ) ) ;
#58 = APPROVAL_ROLE ( '' ) ;
#59 = DATE_AND_TIME ( #201, #209 ) ;
#60 = EDGE_LOOP ( 'NONE', ( #277, #135, #224, #316 ) ) ;
#61 = AXIS2_PLACEMENT_3D ( 'NONE', #21, #317, #288 ) ;
#62 = EDGE_CURVE ( 'NONE', #214, #133, #34, .T. ) ;
#63 = ORIENTED_EDGE ( 'NONE', *, *, #191, .T. ) ;
#65 = DIRECTION ( 'NONE',  ( -0.9950371902099890420, 1.218569110023239810E-17, -0.09950371902099895693 ) ) ;
#64 = LOCAL_TIME ( 18, 9, 23.00000000000000000, #146 ) ;
#66 = CIRCLE ( 'NONE', #163, 6.000000000000000000 ) ;
#67 = CC_DESIGN_PERSON_AND_ORGANIZATION_ASSIGNMENT ( #296, #266, ( #228 ) ) ;
#68 = DIRECTION ( 'NONE',  ( -1.000000000000000000, -0.000000000000000000, -0.000000000000000000 ) ) ;
#69 = DIRECTION ( 'NONE',  ( -1.000000000000000000, -0.000000000000000000, -0.000000000000000000 ) ) ;
#70 = EDGE_CURVE ( 'NONE', #309, #51, #339, .T. ) ;
#71 = CYLINDRICAL_SURFACE ( 'NONE', #216, 4.000000000000000000 ) ;
#72 = CARTESIAN_POINT ( 'NONE',  ( 34.00000000000000000, 4.898587196589412829E-16, -4.000000000000000000 ) ) ;
#73 = ORIENTED_EDGE ( 'NONE', *, *, #196, .T. ) ;
#74 = CARTESIAN_POINT ( 'NONE',  ( 0.000000000000000000, 0.000000000000000000, 3.000000000000000444 ) ) ;
#75 = CARTESIAN_POINT ( 'NONE',  ( -19.22539334065129069, 0.000000000000000000, 0.000000000000000000 ) ) ;
#76 = AXIS2_PLACEMENT_3D ( 'NONE', #151, #84, #119 ) ;
#77 = DIRECTION ( 'NONE',  ( -1.000000000000000000, -0.000000000000000000, -0.000000000000000000 ) ) ;
#78 = DIRECTION ( 'NONE',  ( -1.000000000000000000, -0.000000000000000000, -0.000000000000000000 ) ) ;
#79 = CC_DESIGN_PERSON_AND_ORGANIZATION_ASSIGNMENT ( #112, #213, ( #88 ) ) ;
#80 = ADVANCED_FACE ( 'NONE', ( #96, #279 ), #304, .F. ) ;
#81 = PLANE ( 'NONE',  #319 ) ;
#82 = ORIENTED_EDGE ( 'NONE', *, *, #196, .F. ) ;
#83 = EDGE_CURVE ( 'NONE', #35, #352, #272, .T. ) ;
#84 = DIRECTION ( 'NONE',  ( -1.000000000000000000, -0.000000000000000000, -0.000000000000000000 ) ) ;
#85 = EDGE_CURVE ( 'NONE', #352, #347, #4, .T. ) ;
#86 = VECTOR ( 'NONE', #369, 1000.000000000000000 ) ;
#87 = CYLINDRICAL_SURFACE ( 'NONE', #7, 3.000000000000000444 ) ;
#88 = SECURITY_CLASSIFICATION ( '', '', #268 ) ;
#89 = APPROVAL_STATUS ( 'not_yet_approved' ) ;
#90 = PERSON_AND_ORGANIZATION_ROLE ( 'creator' ) ;
#91 = EDGE_CURVE ( 'NONE', #162, #133, #364, .T. ) ;
#92 = MANIFOLD_SOLID_BREP ( 'Révolution1', #18 ) ;
#93 = CIRCLE ( 'NONE', #159, 4.000000000000000000 ) ;
#94 = APPROVAL_DATE_TIME ( #286, #231 ) ;
#95 = VERTEX_POINT ( 'NONE', #74 ) ;
#96 = FACE_BOUND ( 'NONE', #203, .T. ) ;
#97 = DIRECTION ( 'NONE',  ( 0.000000000000000000, 0.000000000000000000, 1.000000000000000000 ) ) ;
#98 = CARTESIAN_POINT ( 'NONE',  ( -19.22539334065129069, 4.898587196589412829E-16, -4.000000000000000000 ) ) ;
#99 = CARTESIAN_POINT ( 'NONE',  ( 17.00000000000000000, 0.000000000000000000, 6.000000000000000000 ) ) ;
#100 = PRODUCT_RELATED_PRODUCT_CATEGORY ( 'detail', '', ( #228 ) ) ;
#101 = EDGE_CURVE ( 'NONE', #322, #95, #246, .T. ) ;
#102 = CARTESIAN_POINT ( 'NONE',  ( 17.00000000000000000, 0.000000000000000000, 6.000000000000000000 ) ) ;
#103 = COORDINATED_UNIVERSAL_TIME_OFFSET ( 1, 0, .AHEAD. ) ;
#104 = EDGE_CURVE ( 'NONE', #347, #352, #173, .T. ) ;
#105 = CARTESIAN_POINT ( 'NONE',  ( 12.00000000000000000, 0.000000000000000000, 7.000000000000000000 ) ) ;
#106 = ORIENTED_EDGE ( 'NONE', *, *, #91, .F. ) ;
#107 = ORIENTED_EDGE ( 'NONE', *, *, #52, .F. ) ;
#108 = DIRECTION ( 'NONE',  ( -1.000000000000000000, -0.000000000000000000, -0.000000000000000000 ) ) ;
#109 = CARTESIAN_POINT ( 'NONE',  ( 12.00000000000000000, 8.572527594031473190E-16, -7.000000000000000000 ) ) ;
#110 = CC_DESIGN_DATE_AND_TIME_ASSIGNMENT ( #258, #298, ( #88 ) ) ;
#111 = DIRECTION ( 'NONE',  ( -1.000000000000000000, -0.000000000000000000, -0.000000000000000000 ) ) ;
#112 = PERSON_AND_ORGANIZATION ( #118, #334 ) ;
#113 = CIRCLE ( 'NONE', #324, 7.000000000000000000 ) ;
#114 = EDGE_LOOP ( 'NONE', ( #356, #287 ) ) ;
#115 = EDGE_CURVE ( 'NONE', #121, #347, #327, .T. ) ;
#116 = DIRECTION ( 'NONE',  ( -1.000000000000000000, -0.000000000000000000, -0.000000000000000000 ) ) ;
#117 = CARTESIAN_POINT ( 'NONE',  ( 39.00000000000000000, 3.500000000000000000, 0.000000000000000000 ) ) ;
#118 = PERSON ( 'UNSPECIFIED', 'UNSPECIFIED', 'UNSPECIFIED', ('UNSPECIFIED'), ('UNSPECIFIED'), ('UNSPECIFIED') ) ;
#119 = DIRECTION ( 'NONE',  ( 0.000000000000000000, 0.000000000000000000, 1.000000000000000000 ) ) ;
#120 = ORIENTED_EDGE ( 'NONE', *, *, #129, .T. ) ;
#121 = VERTEX_POINT ( 'NONE', #15 ) ;
#122 = ADVANCED_FACE ( 'NONE', ( #158 ), #87, .T. ) ;
#123 =( GEOMETRIC_REPRESENTATION_CONTEXT ( 3 ) GLOBAL_UNCERTAINTY_ASSIGNED_CONTEXT ( ( #233 ) ) GLOBAL_UNIT_ASSIGNED_CONTEXT ( ( #312, #176, #238 ) ) REPRESENTATION_CONTEXT ( 'NONE', 'WORKASPACE' ) );
#124 = ADVANCED_FACE ( 'NONE', ( #179 ), #202, .T. ) ;
#125 = APPROVAL_STATUS ( 'not_yet_approved' ) ;
#126 = ADVANCED_FACE ( 'NONE', ( #9 ), #71, .T. ) ;
#127 = ORIENTED_EDGE ( 'NONE', *, *, #177, .F. ) ;
#128 = APPROVAL_PERSON_ORGANIZATION ( #362, #346, #294 ) ;
#129 = EDGE_CURVE ( 'NONE', #309, #121, #359, .T. ) ;
#130 = EDGE_LOOP ( 'NONE', ( #180, #107 ) ) ;
#131 = DIRECTION ( 'NONE',  ( 0.000000000000000000, 0.000000000000000000, -1.000000000000000000 ) ) ;
#132 = AXIS2_PLACEMENT_3D ( 'NONE', #377, #154, #149 ) ;
#133 = VERTEX_POINT ( 'NONE', #105 ) ;
#134 = CARTESIAN_POINT ( 'NONE',  ( 17.00000000000000000, 7.960204194457795477E-16, -6.000000000000000000 ) ) ;
#135 = ORIENTED_EDGE ( 'NONE', *, *, #177, .T. ) ;
#136 = CARTESIAN_POINT ( 'NONE',  ( 39.00000000000000000, 0.000000000000000000, 0.000000000000000000 ) ) ;
#137 = EDGE_CURVE ( 'NONE', #121, #35, #244, .T. ) ;
#138 = CARTESIAN_POINT ( 'NONE',  ( 39.00000000000000000, 4.592425496802573972E-16, -3.500000000000000000 ) ) ;
#139 = CONICAL_SURFACE ( 'NONE', #76, 3.500000000000000000, 0.09966865249116207970 ) ;
#140 = ORIENTED_EDGE ( 'NONE', *, *, #83, .T. ) ;
#141 = CARTESIAN_POINT ( 'NONE',  ( -19.22539334065129069, 0.000000000000000000, 0.000000000000000000 ) ) ;
#142 = DIRECTION ( 'NONE',  ( -1.000000000000000000, -0.000000000000000000, -0.000000000000000000 ) ) ;
#143 = AXIS2_PLACEMENT_3D ( 'NONE', #6, #69, #168 ) ;
#144 = DIRECTION ( 'NONE',  ( -1.000000000000000000, -0.000000000000000000, -0.000000000000000000 ) ) ;
#145 = ORIENTED_EDGE ( 'NONE', *, *, #20, .T. ) ;
#146 = COORDINATED_UNIVERSAL_TIME_OFFSET ( 1, 0, .AHEAD. ) ;
#147 = DIRECTION ( 'NONE',  ( -1.000000000000000000, 0.000000000000000000, -0.000000000000000000 ) ) ;
#148 = CIRCLE ( 'NONE', #275, 3.000000000000000444 ) ;
#149 = DIRECTION ( 'NONE',  ( 0.000000000000000000, 0.000000000000000000, 1.000000000000000000 ) ) ;
#150 = AXIS2_PLACEMENT_3D ( 'NONE', #170, #226, #174 ) ;
#151 = CARTESIAN_POINT ( 'NONE',  ( 39.00000000000000000, 0.000000000000000000, 0.000000000000000000 ) ) ;
#152 = CIRCLE ( 'NONE', #381, 6.000000000000000000 ) ;
#153 = ORIENTED_EDGE ( 'NONE', *, *, #333, .T. ) ;
#154 = DIRECTION ( 'NONE',  ( -1.000000000000000000, -0.000000000000000000, -0.000000000000000000 ) ) ;
#155 = DIRECTION ( 'NONE',  ( 1.000000000000000000, 0.000000000000000000, 0.000000000000000000 ) ) ;
#156 = DATE_TIME_ROLE ( 'creation_date' ) ;
#157 = APPROVAL_DATE_TIME ( #314, #346 ) ;
#158 = FACE_OUTER_BOUND ( 'NONE', #365, .T. ) ;
#159 = AXIS2_PLACEMENT_3D ( 'NONE', #199, #257, #278 ) ;
#160 = PERSON_AND_ORGANIZATION_ROLE ( 'design_supplier' ) ;
#161 = FACE_OUTER_BOUND ( 'NONE', #328, .T. ) ;
#162 = VERTEX_POINT ( 'NONE', #102 ) ;
#163 = AXIS2_PLACEMENT_3D ( 'NONE', #375, #77, #284 ) ;
#164 = VECTOR ( 'NONE', #360, 1000.000000000000000 ) ;
#165 = DIRECTION ( 'NONE',  ( 0.000000000000000000, 0.000000000000000000, 1.000000000000000000 ) ) ;
#166 = FACE_OUTER_BOUND ( 'NONE', #46, .T. ) ;
#167 = FACE_OUTER_BOUND ( 'NONE', #274, .T. ) ;
#168 = DIRECTION ( 'NONE',  ( 0.000000000000000000, 0.000000000000000000, 1.000000000000000000 ) ) ;
#169 = ORIENTED_EDGE ( 'NONE', *, *, #115, .T. ) ;
#170 = CARTESIAN_POINT ( 'NONE',  ( -19.22539334065129069, 0.000000000000000000, 0.000000000000000000 ) ) ;
#171 = CARTESIAN_POINT ( 'NONE',  ( 34.00000000000000000, 0.000000000000000000, 0.000000000000000000 ) ) ;
#172 = FACE_OUTER_BOUND ( 'NONE', #234, .T. ) ;
#173 = CIRCLE ( 'NONE', #186, 4.000000000000000000 ) ;
#174 = DIRECTION ( 'NONE',  ( 0.000000000000000000, 0.000000000000000000, 1.000000000000000000 ) ) ;
#175 = AXIS2_PLACEMENT_3D ( 'NONE', #349, #78, #313 ) ;
#176 =( NAMED_UNIT ( * ) PLANE_ANGLE_UNIT ( ) SI_UNIT ( $, .RADIAN. ) );
#177 = EDGE_CURVE ( 'NONE', #36, #162, #66, .T. ) ;
#178 = DIRECTION ( 'NONE',  ( 0.000000000000000000, 0.000000000000000000, 1.000000000000000000 ) ) ;
#179 = FACE_OUTER_BOUND ( 'NONE', #184, .T. ) ;
#180 = ORIENTED_EDGE ( 'NONE', *, *, #70, .F. ) ;
#181 = CARTESIAN_POINT ( 'NONE',  ( -19.22539334065129069, 3.673940397442060361E-16, -3.000000000000000444 ) ) ;
#182 = DIRECTION ( 'NONE',  ( -1.000000000000000000, 0.000000000000000000, -0.000000000000000000 ) ) ;
#183 = ORIENTED_EDGE ( 'NONE', *, *, #101, .T. ) ;
#184 = EDGE_LOOP ( 'NONE', ( #200, #73, #169, #379 ) ) ;
#185 = VECTOR ( 'NONE', #65, 1000.000000000000114 ) ;
#186 = AXIS2_PLACEMENT_3D ( 'NONE', #47, #340, #16 ) ;
#187 = PERSON_AND_ORGANIZATION_ROLE ( 'creator' ) ;
#188 = ORIENTED_EDGE ( 'NONE', *, *, #225, .T. ) ;
#189 = ORIENTED_EDGE ( 'NONE', *, *, #3, .F. ) ;
#190 = ORIENTED_EDGE ( 'NONE', *, *, #104, .F. ) ;
#191 = EDGE_CURVE ( 'NONE', #95, #329, #17, .T. ) ;
#192 = AXIS2_PLACEMENT_3D ( 'NONE', #136, #251, #97 ) ;
#193 = ADVANCED_BREP_SHAPE_REPRESENTATION ( 'OTL02I', ( #92, #239 ), #123 ) ;
#195 = DIRECTION ( 'NONE',  ( -0.9805806756909202226, 0.000000000000000000, 0.1961161351381839890 ) ) ;
#194 = PERSON_AND_ORGANIZATION ( #118, #334 ) ;
#196 = EDGE_CURVE ( 'NONE', #35, #121, #93, .T. ) ;
#197 = PERSON_AND_ORGANIZATION ( #118, #334 ) ;
#198 = PRODUCT_DEFINITION ( 'UNKNOWN', '', #311, #302 ) ;
#199 = CARTESIAN_POINT ( 'NONE',  ( 34.00000000000000000, 0.000000000000000000, 0.000000000000000000 ) ) ;
#200 = ORIENTED_EDGE ( 'NONE', *, *, #83, .F. ) ;
#201 = CALENDAR_DATE ( 2024, 17, 1 ) ;
#202 = CYLINDRICAL_SURFACE ( 'NONE', #150, 4.000000000000000000 ) ;
#203 = EDGE_LOOP ( 'NONE', ( #44, #26 ) ) ;
#204 = CARTESIAN_POINT ( 'NONE',  ( 12.00000000000000000, 0.000000000000000000, 0.000000000000000000 ) ) ;
#205 = CC_DESIGN_APPROVAL ( #346, ( #198 ) ) ;
#206 = CARTESIAN_POINT ( 'NONE',  ( 17.00000000000000000, 0.000000000000000000, 4.000000000000000000 ) ) ;
#207 = AXIS2_PLACEMENT_3D ( 'NONE', #43, #147, #259 ) ;
#208 = CARTESIAN_POINT ( 'NONE',  ( 12.00000000000000000, 0.000000000000000000, 0.000000000000000000 ) ) ;
#209 = LOCAL_TIME ( 18, 9, 23.00000000000000000, #103 ) ;
#210 = ORIENTED_EDGE ( 'NONE', *, *, #129, .F. ) ;
#211 = CARTESIAN_POINT ( 'NONE',  ( 12.00000000000000000, 0.000000000000000000, 0.000000000000000000 ) ) ;
#212 = ADVANCED_FACE ( 'NONE', ( #161, #5 ), #255, .F. ) ;
#213 = PERSON_AND_ORGANIZATION_ROLE ( 'classification_officer' ) ;
#214 = VERTEX_POINT ( 'NONE', #109 ) ;
#215 = LOCAL_TIME ( 18, 9, 23.00000000000000000, #45 ) ;
#216 = AXIS2_PLACEMENT_3D ( 'NONE', #75, #48, #342 ) ;
#217 = APPROVAL_ROLE ( '' ) ;
#218 = ORIENTED_EDGE ( 'NONE', *, *, #370, .T. ) ;
#219 = ADVANCED_FACE ( 'NONE', ( #374 ), #291, .T. ) ;
#220 = EDGE_CURVE ( 'NONE', #133, #214, #113, .T. ) ;
#221 = ORIENTED_EDGE ( 'NONE', *, *, #137, .F. ) ;
#222 = CALENDAR_DATE ( 2024, 17, 1 ) ;
#223 = CARTESIAN_POINT ( 'NONE',  ( 12.00000000000000000, 3.000000000000000444, 0.000000000000000000 ) ) ;
#224 = ORIENTED_EDGE ( 'NONE', *, *, #91, .T. ) ;
#225 = EDGE_CURVE ( 'NONE', #322, #282, #345, .T. ) ;
#226 = DIRECTION ( 'NONE',  ( -1.000000000000000000, -0.000000000000000000, -0.000000000000000000 ) ) ;
#227 = ORIENTED_EDGE ( 'NONE', *, *, #115, .F. ) ;
#228 = PRODUCT ( 'OTL02I', 'OTL02I', '', ( #243 ) ) ;
#229 = VECTOR ( 'NONE', #108, 1000.000000000000000 ) ;
#230 = DIRECTION ( 'NONE',  ( -0.9950371902099890420, 0.000000000000000000, 0.09950371902099895693 ) ) ;
#231 = APPROVAL ( #354, 'UNSPECIFIED' ) ;
#232 = CARTESIAN_POINT ( 'NONE',  ( 12.00000000000000000, 3.673940397442060361E-16, -3.000000000000000444 ) ) ;
#233 = UNCERTAINTY_MEASURE_WITH_UNIT (LENGTH_MEASURE( 1.000000000000000082E-05 ), #312, 'distance_accuracy_value', 'NONE');
#234 = EDGE_LOOP ( 'NONE', ( #188, #153, #2, #371 ) ) ;
#235 = CARTESIAN_POINT ( 'NONE',  ( 17.00000000000000000, 0.000000000000000000, 0.000000000000000000 ) ) ;
#236 = DIRECTION ( 'NONE',  ( -1.000000000000000000, -0.000000000000000000, -0.000000000000000000 ) ) ;
#237 = ADVANCED_FACE ( 'NONE', ( #378 ), #139, .T. ) ;
#238 =( NAMED_UNIT ( * ) SI_UNIT ( $, .STERADIAN. ) SOLID_ANGLE_UNIT ( ) );
#239 = AXIS2_PLACEMENT_3D ( 'NONE', #262, #263, #155 ) ;
#240 = CYLINDRICAL_SURFACE ( 'NONE', #143, 3.000000000000000444 ) ;
#241 = LINE ( 'NONE', #181, #384 ) ;
#242 = ADVANCED_FACE ( 'NONE', ( #167 ), #55, .T. ) ;
#243 = MECHANICAL_CONTEXT ( 'NONE', #28, 'mechanical' ) ;
#244 = CIRCLE ( 'NONE', #367, 4.000000000000000000 ) ;
#245 = CIRCLE ( 'NONE', #283, 3.000000000000000444 ) ;
#246 = LINE ( 'NONE', #363, #260 ) ;
#247 = CARTESIAN_POINT ( 'NONE',  ( 12.00000000000000000, 0.000000000000000000, 0.000000000000000000 ) ) ;
#248 = DIRECTION ( 'NONE',  ( 0.000000000000000000, 0.000000000000000000, 1.000000000000000000 ) ) ;
#249 = AXIS2_PLACEMENT_3D ( 'NONE', #235, #116, #353 ) ;
#250 = ORIENTED_EDGE ( 'NONE', *, *, #290, .T. ) ;
#251 = DIRECTION ( 'NONE',  ( -1.000000000000000000, -0.000000000000000000, -0.000000000000000000 ) ) ;
#252 = PERSON_AND_ORGANIZATION ( #118, #334 ) ;
#253 = ORIENTED_EDGE ( 'NONE', *, *, #62, .T. ) ;
#254 = CIRCLE ( 'NONE', #289, 3.500000000000000000 ) ;
#255 = PLANE ( 'NONE',  #207 ) ;
#256 = CC_DESIGN_PERSON_AND_ORGANIZATION_ASSIGNMENT ( #194, #90, ( #198 ) ) ;
#257 = DIRECTION ( 'NONE',  ( -1.000000000000000000, -0.000000000000000000, -0.000000000000000000 ) ) ;
#258 = DATE_AND_TIME ( #222, #215 ) ;
#259 = DIRECTION ( 'NONE',  ( -0.000000000000000000, 0.000000000000000000, 1.000000000000000000 ) ) ;
#260 = VECTOR ( 'NONE', #281, 1000.000000000000000 ) ;
#261 = ORIENTED_EDGE ( 'NONE', *, *, #137, .T. ) ;
#262 = CARTESIAN_POINT ( 'NONE',  ( 0.000000000000000000, 0.000000000000000000, 0.000000000000000000 ) ) ;
#263 = DIRECTION ( 'NONE',  ( 0.000000000000000000, 0.000000000000000000, 1.000000000000000000 ) ) ;
#264 = CARTESIAN_POINT ( 'NONE',  ( 39.00000000000000000, 0.000000000000000000, 3.500000000000000000 ) ) ;
#265 = ORIENTED_EDGE ( 'NONE', *, *, #220, .F. ) ;
#266 = PERSON_AND_ORGANIZATION_ROLE ( 'design_owner' ) ;
#267 = PRODUCT_DEFINITION_SHAPE ( 'NONE', 'NONE',  #198 ) ;
#268 = SECURITY_CLASSIFICATION_LEVEL ( 'unclassified' ) ;
#269 = CC_DESIGN_SECURITY_CLASSIFICATION ( #88, ( #311 ) ) ;
#270 = PERSON_AND_ORGANIZATION ( #118, #334 ) ;
#271 = EDGE_LOOP ( 'NONE', ( #63, #49 ) ) ;
#272 = LINE ( 'NONE', #98, #164 ) ;
#273 = CALENDAR_DATE ( 2024, 17, 1 ) ;
#274 = EDGE_LOOP ( 'NONE', ( #250, #307, #265, #106 ) ) ;
#275 = AXIS2_PLACEMENT_3D ( 'NONE', #211, #57, #376 ) ;
#276 = APPROVAL_PERSON_ORGANIZATION ( #270, #231, #58 ) ;
#277 = ORIENTED_EDGE ( 'NONE', *, *, #31, .F. ) ;
#278 = DIRECTION ( 'NONE',  ( 0.000000000000000000, 0.000000000000000000, 1.000000000000000000 ) ) ;
#279 = FACE_OUTER_BOUND ( 'NONE', #285, .T. ) ;
#280 = DATE_AND_TIME ( #273, #64 ) ;
#281 = DIRECTION ( 'NONE',  ( -1.000000000000000000, -0.000000000000000000, -0.000000000000000000 ) ) ;
#282 = VERTEX_POINT ( 'NONE', #232 ) ;
#283 = AXIS2_PLACEMENT_3D ( 'NONE', #325, #306, #248 ) ;
#284 = DIRECTION ( 'NONE',  ( 0.000000000000000000, 0.000000000000000000, 1.000000000000000000 ) ) ;
#285 = EDGE_LOOP ( 'NONE', ( #33, #253 ) ) ;
#286 = DATE_AND_TIME ( #357, #30 ) ;
#287 = ORIENTED_EDGE ( 'NONE', *, *, #85, .T. ) ;
#288 = DIRECTION ( 'NONE',  ( 0.000000000000000000, 0.000000000000000000, -1.000000000000000000 ) ) ;
#289 = AXIS2_PLACEMENT_3D ( 'NONE', #368, #8, #165 ) ;
#290 = EDGE_CURVE ( 'NONE', #162, #36, #152, .T. ) ;
#291 = CONICAL_SURFACE ( 'NONE', #175, 6.000000000000000000, 0.1973955598498806641 ) ;
#292 = ORIENTED_EDGE ( 'NONE', *, *, #290, .F. ) ;
#293 = CARTESIAN_POINT ( 'NONE',  ( 17.00000000000000000, 0.000000000000000000, 0.000000000000000000 ) ) ;
#294 = APPROVAL_ROLE ( '' ) ;
#295 = CC_DESIGN_DATE_AND_TIME_ASSIGNMENT ( #280, #156, ( #198 ) ) ;
#296 = PERSON_AND_ORGANIZATION ( #118, #334 ) ;
#297 = FACE_OUTER_BOUND ( 'NONE', #130, .T. ) ;
#298 = DATE_TIME_ROLE ( 'classification_date' ) ;
#299 = APPROVAL ( #125, 'UNSPECIFIED' ) ;
#300 = FACE_OUTER_BOUND ( 'NONE', #271, .T. ) ;
#301 = ORIENTED_EDGE ( 'NONE', *, *, #20, .F. ) ;
#302 = DESIGN_CONTEXT ( 'detailed design', #383, 'design' ) ;
#303 = DIRECTION ( 'NONE',  ( 1.000000000000000000, 0.000000000000000000, 0.000000000000000000 ) ) ;
#304 = PLANE ( 'NONE',  #13 ) ;
#305 = CARTESIAN_POINT ( 'NONE',  ( 17.00000000000000000, 7.347880794884119736E-16, -6.000000000000000000 ) ) ;
#306 = DIRECTION ( 'NONE',  ( -1.000000000000000000, -0.000000000000000000, -0.000000000000000000 ) ) ;
#307 = ORIENTED_EDGE ( 'NONE', *, *, #31, .T. ) ;
#308 = CARTESIAN_POINT ( 'NONE',  ( -19.22539334065129069, 0.000000000000000000, 4.000000000000000000 ) ) ;
#309 = VERTEX_POINT ( 'NONE', #264 ) ;
#310 = CARTESIAN_POINT ( 'NONE',  ( 0.000000000000000000, 0.000000000000000000, 0.000000000000000000 ) ) ;
#311 = PRODUCT_DEFINITION_FORMATION_WITH_SPECIFIED_SOURCE ( 'ANY', '', #228, .NOT_KNOWN. ) ;
#312 =( LENGTH_UNIT ( ) NAMED_UNIT ( * ) SI_UNIT ( .MILLI., .METRE. ) );
#313 = DIRECTION ( 'NONE',  ( 0.000000000000000000, 0.000000000000000000, 1.000000000000000000 ) ) ;
#314 = DATE_AND_TIME ( #39, #351 ) ;
#315 = VECTOR ( 'NONE', #230, 1000.000000000000114 ) ;
#316 = ORIENTED_EDGE ( 'NONE', *, *, #62, .F. ) ;
#317 = DIRECTION ( 'NONE',  ( 1.000000000000000000, 0.000000000000000000, 0.000000000000000000 ) ) ;
#318 = ADVANCED_FACE ( 'NONE', ( #300 ), #320, .F. ) ;
#319 = AXIS2_PLACEMENT_3D ( 'NONE', #117, #182, #382 ) ;
#320 = PLANE ( 'NONE',  #61 ) ;
#321 = ADVANCED_FACE ( 'NONE', ( #166 ), #32, .T. ) ;
#322 = VERTEX_POINT ( 'NONE', #19 ) ;
#323 = VECTOR ( 'NONE', #195, 1000.000000000000000 ) ;
#324 = AXIS2_PLACEMENT_3D ( 'NONE', #208, #236, #178 ) ;
#325 = CARTESIAN_POINT ( 'NONE',  ( 0.000000000000000000, 0.000000000000000000, 0.000000000000000000 ) ) ;
#326 = COORDINATED_UNIVERSAL_TIME_OFFSET ( 1, 0, .AHEAD. ) ;
#327 = LINE ( 'NONE', #308, #229 ) ;
#328 = EDGE_LOOP ( 'NONE', ( #292, #127 ) ) ;
#329 = VERTEX_POINT ( 'NONE', #344 ) ;
#330 = LINE ( 'NONE', #336, #185 ) ;
#331 = CC_DESIGN_APPROVAL ( #231, ( #311 ) ) ;
#332 = DIRECTION ( 'NONE',  ( 0.000000000000000000, 0.000000000000000000, 1.000000000000000000 ) ) ;
#333 = EDGE_CURVE ( 'NONE', #282, #329, #241, .T. ) ;
#334 = ORGANIZATION ( 'UNSPECIFIED', 'UNSPECIFIED', '' ) ;
#335 = SHAPE_DEFINITION_REPRESENTATION ( #267, #193 ) ;
#336 = CARTESIAN_POINT ( 'NONE',  ( 39.00000000000000000, 4.286263797015736595E-16, -3.500000000000000000 ) ) ;
#337 = DIRECTION ( 'NONE',  ( -1.000000000000000000, -0.000000000000000000, -0.000000000000000000 ) ) ;
#338 = CC_DESIGN_APPROVAL ( #299, ( #88 ) ) ;
#339 = CIRCLE ( 'NONE', #192, 3.500000000000000000 ) ;
#340 = DIRECTION ( 'NONE',  ( -1.000000000000000000, -0.000000000000000000, -0.000000000000000000 ) ) ;
#341 = DIRECTION ( 'NONE',  ( 0.000000000000000000, 0.000000000000000000, 1.000000000000000000 ) ) ;
#342 = DIRECTION ( 'NONE',  ( 0.000000000000000000, 0.000000000000000000, 1.000000000000000000 ) ) ;
#343 = COORDINATED_UNIVERSAL_TIME_OFFSET ( 1, 0, .AHEAD. ) ;
#344 = CARTESIAN_POINT ( 'NONE',  ( 0.000000000000000000, 3.673940397442060361E-16, -3.000000000000000444 ) ) ;
#345 = CIRCLE ( 'NONE', #1, 3.000000000000000444 ) ;
#346 = APPROVAL ( #89, 'UNSPECIFIED' ) ;
#347 = VERTEX_POINT ( 'NONE', #206 ) ;
#348 = DIRECTION ( 'NONE',  ( 0.000000000000000000, 0.000000000000000000, 1.000000000000000000 ) ) ;
#349 = CARTESIAN_POINT ( 'NONE',  ( 17.00000000000000000, 0.000000000000000000, 0.000000000000000000 ) ) ;
#350 = ADVANCED_FACE ( 'NONE', ( #297 ), #81, .F. ) ;
#351 = LOCAL_TIME ( 18, 9, 23.00000000000000000, #326 ) ;
#352 = VERTEX_POINT ( 'NONE', #23 ) ;
#353 = DIRECTION ( 'NONE',  ( 0.000000000000000000, 0.000000000000000000, 1.000000000000000000 ) ) ;
#354 = APPROVAL_STATUS ( 'not_yet_approved' ) ;
#355 = CC_DESIGN_PERSON_AND_ORGANIZATION_ASSIGNMENT ( #252, #187, ( #311 ) ) ;
#356 = ORIENTED_EDGE ( 'NONE', *, *, #104, .T. ) ;
#357 = CALENDAR_DATE ( 2024, 17, 1 ) ;
#358 = ORIENTED_EDGE ( 'NONE', *, *, #52, .T. ) ;
#359 = LINE ( 'NONE', #50, #315 ) ;
#360 = DIRECTION ( 'NONE',  ( -1.000000000000000000, -0.000000000000000000, -0.000000000000000000 ) ) ;
#361 = EDGE_LOOP ( 'NONE', ( #261, #140, #190, #227 ) ) ;
#363 = CARTESIAN_POINT ( 'NONE',  ( -19.22539334065129069, 0.000000000000000000, 3.000000000000000444 ) ) ;
#362 = PERSON_AND_ORGANIZATION ( #118, #334 ) ;
#364 = LINE ( 'NONE', #99, #323 ) ;
#365 = EDGE_LOOP ( 'NONE', ( #10, #218, #183, #189 ) ) ;
#366 = DIRECTION ( 'NONE',  ( -1.000000000000000000, -0.000000000000000000, -0.000000000000000000 ) ) ;
#367 = AXIS2_PLACEMENT_3D ( 'NONE', #171, #142, #11 ) ;
#368 = CARTESIAN_POINT ( 'NONE',  ( 39.00000000000000000, 0.000000000000000000, 0.000000000000000000 ) ) ;
#369 = DIRECTION ( 'NONE',  ( -0.9805806756909202226, 2.401729971581267947E-17, -0.1961161351381839890 ) ) ;
#370 = EDGE_CURVE ( 'NONE', #282, #322, #148, .T. ) ;
#371 = ORIENTED_EDGE ( 'NONE', *, *, #101, .F. ) ;
#372 = CC_DESIGN_PERSON_AND_ORGANIZATION_ASSIGNMENT ( #373, #160, ( #311 ) ) ;
#373 = PERSON_AND_ORGANIZATION ( #118, #334 ) ;
#374 = FACE_OUTER_BOUND ( 'NONE', #60, .T. ) ;
#375 = CARTESIAN_POINT ( 'NONE',  ( 17.00000000000000000, 0.000000000000000000, 0.000000000000000000 ) ) ;
#376 = DIRECTION ( 'NONE',  ( 0.000000000000000000, 0.000000000000000000, 1.000000000000000000 ) ) ;
#377 = CARTESIAN_POINT ( 'NONE',  ( 39.00000000000000000, 0.000000000000000000, 0.000000000000000000 ) ) ;
#378 = FACE_OUTER_BOUND ( 'NONE', #40, .T. ) ;
#379 = ORIENTED_EDGE ( 'NONE', *, *, #85, .F. ) ;
#380 = DIRECTION ( 'NONE',  ( -1.000000000000000000, -0.000000000000000000, -0.000000000000000000 ) ) ;
#381 = AXIS2_PLACEMENT_3D ( 'NONE', #293, #53, #22 ) ;
#382 = DIRECTION ( 'NONE',  ( -0.000000000000000000, 0.000000000000000000, 1.000000000000000000 ) ) ;
#383 = APPLICATION_CONTEXT ( 'configuration controlled 3d designs of mechanical parts and assemblies' ) ;
#384 = VECTOR ( 'NONE', #380, 1000.000000000000000 ) ;
#385 = APPLICATION_PROTOCOL_DEFINITION ( 'international standard', 'config_control_design', 1994, #383 ) ;
ENDSEC;
END-ISO-10303-21;
