ISO-10303-21;
HEADER;
FILE_DESCRIPTION (( 'STEP AP203' ),
    '1' );
FILE_NAME ('OTC02I.STEP',
    '2024-01-17T17:08:47',
    ( '' ),
    ( '' ),
    'SwSTEP 2.0',
    'SolidWorks 2018',
    '' );
FILE_SCHEMA (( 'CONFIG_CONTROL_DESIGN' ));
ENDSEC;

DATA;
#1 = EDGE_CURVE ( 'NONE', #122, #383, #187, .T. ) ;
#2 = DATE_AND_TIME ( #226, #221 ) ;
#3 = ORIENTED_EDGE ( 'NONE', *, *, #290, .T. ) ;
#4 = CC_DESIGN_APPROVAL ( #30, ( #235 ) ) ;
#5 = CARTESIAN_POINT ( 'NONE',  ( 17.00000000000000000, 7.960204194457795477E-16, -6.000000000000000000 ) ) ;
#6 = ORIENTED_EDGE ( 'NONE', *, *, #103, .T. ) ;
#7 = DIRECTION ( 'NONE',  ( 0.000000000000000000, 0.000000000000000000, 1.000000000000000000 ) ) ;
#8 = CARTESIAN_POINT ( 'NONE',  ( 0.000000000000000000, 0.000000000000000000, 0.000000000000000000 ) ) ;
#9 = CARTESIAN_POINT ( 'NONE',  ( 12.00000000000000000, 3.673940397442060361E-16, -3.000000000000000444 ) ) ;
#10 = DIRECTION ( 'NONE',  ( -1.000000000000000000, -0.000000000000000000, -0.000000000000000000 ) ) ;
#11 = CARTESIAN_POINT ( 'NONE',  ( 34.00000000000000000, 0.000000000000000000, 0.000000000000000000 ) ) ;
#12 = APPROVAL ( #153, 'UNSPECIFIED' ) ;
#13 = ORIENTED_EDGE ( 'NONE', *, *, #1, .T. ) ;
#14 = ORIENTED_EDGE ( 'NONE', *, *, #365, .F. ) ;
#15 = AXIS2_PLACEMENT_3D ( 'NONE', #195, #154, #215 ) ;
#16 = PERSON_AND_ORGANIZATION ( #232, #309 ) ;
#17 = EDGE_CURVE ( 'NONE', #268, #329, #52, .T. ) ;
#18 = CYLINDRICAL_SURFACE ( 'NONE', #212, 3.000000000000000444 ) ;
#19 = ORIENTED_EDGE ( 'NONE', *, *, #384, .F. ) ;
#20 = PRODUCT_RELATED_PRODUCT_CATEGORY ( 'detail', '', ( #360 ) ) ;
#21 = EDGE_CURVE ( 'NONE', #304, #237, #217, .T. ) ;
#22 = EDGE_LOOP ( 'NONE', ( #140, #62 ) ) ;
#23 = COORDINATED_UNIVERSAL_TIME_OFFSET ( 1, 0, .AHEAD. ) ;
#24 = DATE_AND_TIME ( #67, #147 ) ;
#25 = FACE_OUTER_BOUND ( 'NONE', #263, .T. ) ;
#26 = CC_DESIGN_PERSON_AND_ORGANIZATION_ASSIGNMENT ( #239, #66, ( #273 ) ) ;
#27 = FACE_OUTER_BOUND ( 'NONE', #249, .T. ) ;
#28 = ORIENTED_EDGE ( 'NONE', *, *, #59, .T. ) ;
#29 =( LENGTH_UNIT ( ) NAMED_UNIT ( * ) SI_UNIT ( .MILLI., .METRE. ) );
#30 = APPROVAL ( #180, 'UNSPECIFIED' ) ;
#31 = LOCAL_TIME ( 18, 8, 47.00000000000000000, #291 ) ;
#32 = ORIENTED_EDGE ( 'NONE', *, *, #320, .T. ) ;
#33 = PLANE ( 'NONE',  #337 ) ;
#34 = AXIS2_PLACEMENT_3D ( 'NONE', #78, #312, #346 ) ;
#35 = DIRECTION ( 'NONE',  ( -1.000000000000000000, -0.000000000000000000, -0.000000000000000000 ) ) ;
#36 = ADVANCED_FACE ( 'NONE', ( #27 ), #289, .F. ) ;
#37 = DIRECTION ( 'NONE',  ( 1.000000000000000000, 0.000000000000000000, 0.000000000000000000 ) ) ;
#38 = FACE_BOUND ( 'NONE', #310, .T. ) ;
#39 = DIRECTION ( 'NONE',  ( -1.000000000000000000, -0.000000000000000000, -0.000000000000000000 ) ) ;
#40 = CIRCLE ( 'NONE', #245, 3.000000000000000444 ) ;
#41 = CLOSED_SHELL ( 'NONE', ( #108, #311, #157, #211, #244, #345, #275, #192, #269, #197, #189, #36 ) ) ;
#42 = CARTESIAN_POINT ( 'NONE',  ( 28.99999999999999645, 0.000000000000000000, 4.000000000000000000 ) ) ;
#43 = CARTESIAN_POINT ( 'NONE',  ( 17.00000000000000000, 4.898587196589412829E-16, -4.000000000000000000 ) ) ;
#44 = FACE_OUTER_BOUND ( 'NONE', #22, .T. ) ;
#45 = CARTESIAN_POINT ( 'NONE',  ( -19.22539334065129069, 0.000000000000000000, 0.000000000000000000 ) ) ;
#46 = ORIENTED_EDGE ( 'NONE', *, *, #63, .T. ) ;
#47 = DIRECTION ( 'NONE',  ( 0.000000000000000000, 0.000000000000000000, -1.000000000000000000 ) ) ;
#48 = CC_DESIGN_DATE_AND_TIME_ASSIGNMENT ( #2, #306, ( #273 ) ) ;
#49 = DIRECTION ( 'NONE',  ( -0.9950371902099890420, 0.000000000000000000, 0.09950371902099881816 ) ) ;
#50 = DIRECTION ( 'NONE',  ( -1.000000000000000000, -0.000000000000000000, -0.000000000000000000 ) ) ;
#51 = PERSON_AND_ORGANIZATION ( #232, #309 ) ;
#52 = CIRCLE ( 'NONE', #327, 3.000000000000000444 ) ;
#53 = ORIENTED_EDGE ( 'NONE', *, *, #276, .F. ) ;
#54 = DIRECTION ( 'NONE',  ( 0.000000000000000000, 0.000000000000000000, 1.000000000000000000 ) ) ;
#55 = CARTESIAN_POINT ( 'NONE',  ( 0.000000000000000000, 0.000000000000000000, 0.000000000000000000 ) ) ;
#56 = APPROVAL_DATE_TIME ( #121, #30 ) ;
#57 = AXIS2_PLACEMENT_3D ( 'NONE', #330, #136, #104 ) ;
#58 = EDGE_LOOP ( 'NONE', ( #100, #97 ) ) ;
#59 = EDGE_CURVE ( 'NONE', #329, #268, #150, .T. ) ;
#60 = VECTOR ( 'NONE', #298, 1000.000000000000000 ) ;
#61 = VERTEX_POINT ( 'NONE', #218 ) ;
#62 = ORIENTED_EDGE ( 'NONE', *, *, #123, .F. ) ;
#63 = EDGE_CURVE ( 'NONE', #256, #173, #233, .T. ) ;
#64 = DIRECTION ( 'NONE',  ( 0.000000000000000000, 0.000000000000000000, 1.000000000000000000 ) ) ;
#65 =( NAMED_UNIT ( * ) PLANE_ANGLE_UNIT ( ) SI_UNIT ( $, .RADIAN. ) );
#66 = PERSON_AND_ORGANIZATION_ROLE ( 'classification_officer' ) ;
#67 = CALENDAR_DATE ( 2024, 17, 1 ) ;
#68 = ORIENTED_EDGE ( 'NONE', *, *, #174, .F. ) ;
#69 = APPROVAL_ROLE ( '' ) ;
#70 = APPROVAL ( #105, 'UNSPECIFIED' ) ;
#71 = CIRCLE ( 'NONE', #170, 3.500000000000000000 ) ;
#72 = VERTEX_POINT ( 'NONE', #9 ) ;
#73 = CARTESIAN_POINT ( 'NONE',  ( 34.00000000000000000, 0.000000000000000000, 0.000000000000000000 ) ) ;
#74 = ORIENTED_EDGE ( 'NONE', *, *, #384, .T. ) ;
#75 = DIRECTION ( 'NONE',  ( -0.9805806756909202226, 0.000000000000000000, 0.1961161351381839890 ) ) ;
#76 = DIRECTION ( 'NONE',  ( 0.000000000000000000, 0.000000000000000000, 1.000000000000000000 ) ) ;
#77 = DIRECTION ( 'NONE',  ( -1.000000000000000000, -0.000000000000000000, -0.000000000000000000 ) ) ;
#78 = CARTESIAN_POINT ( 'NONE',  ( 34.00000000000000000, 3.500000000000000000, 0.000000000000000000 ) ) ;
#79 = EDGE_LOOP ( 'NONE', ( #207, #385, #347, #53 ) ) ;
#80 = ORIENTED_EDGE ( 'NONE', *, *, #228, .F. ) ;
#81 = CARTESIAN_POINT ( 'NONE',  ( 12.00000000000000000, 3.000000000000000444, 0.000000000000000000 ) ) ;
#82 = PRODUCT_DEFINITION_FORMATION_WITH_SPECIFIED_SOURCE ( 'ANY', '', #360, .NOT_KNOWN. ) ;
#83 = CARTESIAN_POINT ( 'NONE',  ( -19.22539334065129069, 0.000000000000000000, 0.000000000000000000 ) ) ;
#84 = AXIS2_PLACEMENT_3D ( 'NONE', #248, #116, #350 ) ;
#85 = MANIFOLD_SOLID_BREP ( 'Révolution1', #41 ) ;
#86 = LOCAL_TIME ( 18, 8, 47.00000000000000000, #23 ) ;
#87 = ORIENTED_EDGE ( 'NONE', *, *, #228, .T. ) ;
#88 = CARTESIAN_POINT ( 'NONE',  ( 12.00000000000000000, 0.000000000000000000, 0.000000000000000000 ) ) ;
#89 = DIRECTION ( 'NONE',  ( 0.000000000000000000, 0.000000000000000000, 1.000000000000000000 ) ) ;
#90 = PERSON_AND_ORGANIZATION ( #232, #309 ) ;
#91 = ORIENTED_EDGE ( 'NONE', *, *, #128, .T. ) ;
#92 = EDGE_LOOP ( 'NONE', ( #364, #13, #14, #230 ) ) ;
#93 = CC_DESIGN_APPROVAL ( #12, ( #273 ) ) ;
#94 = DATE_AND_TIME ( #353, #86 ) ;
#95 = LINE ( 'NONE', #143, #328 ) ;
#96 = AXIS2_PLACEMENT_3D ( 'NONE', #171, #356, #146 ) ;
#97 = ORIENTED_EDGE ( 'NONE', *, *, #214, .T. ) ;
#98 = DIRECTION ( 'NONE',  ( 1.000000000000000000, 0.000000000000000000, 0.000000000000000000 ) ) ;
#99 = EDGE_LOOP ( 'NONE', ( #28, #377 ) ) ;
#100 = ORIENTED_EDGE ( 'NONE', *, *, #365, .T. ) ;
#101 = DATE_TIME_ROLE ( 'creation_date' ) ;
#102 = PERSON_AND_ORGANIZATION_ROLE ( 'creator' ) ;
#103 = EDGE_CURVE ( 'NONE', #173, #256, #279, .T. ) ;
#104 = DIRECTION ( 'NONE',  ( 0.000000000000000000, 0.000000000000000000, 1.000000000000000000 ) ) ;
#105 = APPROVAL_STATUS ( 'not_yet_approved' ) ;
#106 = CARTESIAN_POINT ( 'NONE',  ( 17.00000000000000000, 0.000000000000000000, 0.000000000000000000 ) ) ;
#107 = LOCAL_TIME ( 18, 8, 47.00000000000000000, #303 ) ;
#108 = ADVANCED_FACE ( 'NONE', ( #205 ), #181, .T. ) ;
#109 = AXIS2_PLACEMENT_3D ( 'NONE', #137, #160, #340 ) ;
#110 = DIRECTION ( 'NONE',  ( -1.000000000000000000, -0.000000000000000000, -0.000000000000000000 ) ) ;
#111 = CARTESIAN_POINT ( 'NONE',  ( 17.00000000000000000, 0.000000000000000000, 0.000000000000000000 ) ) ;
#112 = DIRECTION ( 'NONE',  ( 0.000000000000000000, 0.000000000000000000, 1.000000000000000000 ) ) ;
#113 = EDGE_CURVE ( 'NONE', #72, #380, #40, .T. ) ;
#114 = VERTEX_POINT ( 'NONE', #258 ) ;
#115 = DIRECTION ( 'NONE',  ( -1.000000000000000000, -0.000000000000000000, -0.000000000000000000 ) ) ;
#116 = DIRECTION ( 'NONE',  ( -1.000000000000000000, -0.000000000000000000, -0.000000000000000000 ) ) ;
#117 = CARTESIAN_POINT ( 'NONE',  ( 0.000000000000000000, 0.000000000000000000, 0.000000000000000000 ) ) ;
#118 = CARTESIAN_POINT ( 'NONE',  ( 34.00000000000000000, 0.000000000000000000, 3.500000000000000000 ) ) ;
#119 = DIRECTION ( 'NONE',  ( 0.000000000000000000, 0.000000000000000000, 1.000000000000000000 ) ) ;
#120 = DIRECTION ( 'NONE',  ( -1.000000000000000000, -0.000000000000000000, -0.000000000000000000 ) ) ;
#121 = DATE_AND_TIME ( #227, #31 ) ;
#122 = VERTEX_POINT ( 'NONE', #321 ) ;
#123 = EDGE_CURVE ( 'NONE', #165, #61, #145, .T. ) ;
#124 = CARTESIAN_POINT ( 'NONE',  ( -19.22539334065129069, 0.000000000000000000, 3.000000000000000444 ) ) ;
#125 = CIRCLE ( 'NONE', #148, 4.000000000000000000 ) ;
#126 = ORIENTED_EDGE ( 'NONE', *, *, #103, .F. ) ;
#127 = SHAPE_DEFINITION_REPRESENTATION ( #183, #342 ) ;
#128 = EDGE_CURVE ( 'NONE', #380, #329, #267, .T. ) ;
#129 = CALENDAR_DATE ( 2024, 17, 1 ) ;
#130 = CIRCLE ( 'NONE', #264, 6.000000000000000000 ) ;
#131 = PERSON_AND_ORGANIZATION_ROLE ( 'design_owner' ) ;
#132 = VECTOR ( 'NONE', #49, 1000.000000000000114 ) ;
#133 = CARTESIAN_POINT ( 'NONE',  ( -19.22539334065129069, 0.000000000000000000, 0.000000000000000000 ) ) ;
#134 = CARTESIAN_POINT ( 'NONE',  ( 17.00000000000000000, 0.000000000000000000, 0.000000000000000000 ) ) ;
#135 = EDGE_CURVE ( 'NONE', #61, #165, #130, .T. ) ;
#136 = DIRECTION ( 'NONE',  ( -1.000000000000000000, -0.000000000000000000, -0.000000000000000000 ) ) ;
#137 = CARTESIAN_POINT ( 'NONE',  ( 12.00000000000000000, 0.000000000000000000, 0.000000000000000000 ) ) ;
#138 = FACE_BOUND ( 'NONE', #58, .T. ) ;
#139 = DIRECTION ( 'NONE',  ( -1.000000000000000000, -0.000000000000000000, -0.000000000000000000 ) ) ;
#140 = ORIENTED_EDGE ( 'NONE', *, *, #135, .F. ) ;
#141 = CYLINDRICAL_SURFACE ( 'NONE', #367, 3.000000000000000444 ) ;
#142 = CC_DESIGN_APPROVAL ( #70, ( #82 ) ) ;
#143 = CARTESIAN_POINT ( 'NONE',  ( -19.22539334065129069, 0.000000000000000000, 4.000000000000000000 ) ) ;
#144 = CC_DESIGN_PERSON_AND_ORGANIZATION_ASSIGNMENT ( #293, #131, ( #360 ) ) ;
#145 = CIRCLE ( 'NONE', #57, 6.000000000000000000 ) ;
#146 = DIRECTION ( 'NONE',  ( 0.000000000000000000, 0.000000000000000000, 1.000000000000000000 ) ) ;
#147 = LOCAL_TIME ( 18, 8, 47.00000000000000000, #368 ) ;
#148 = AXIS2_PLACEMENT_3D ( 'NONE', #247, #308, #191 ) ;
#149 = LINE ( 'NONE', #188, #262 ) ;
#150 = CIRCLE ( 'NONE', #351, 3.000000000000000444 ) ;
#151 = CIRCLE ( 'NONE', #109, 3.000000000000000444 ) ;
#152 = CC_DESIGN_PERSON_AND_ORGANIZATION_ASSIGNMENT ( #90, #300, ( #82 ) ) ;
#153 = APPROVAL_STATUS ( 'not_yet_approved' ) ;
#154 = DIRECTION ( 'NONE',  ( -1.000000000000000000, -0.000000000000000000, -0.000000000000000000 ) ) ;
#155 = EDGE_CURVE ( 'NONE', #332, #122, #125, .T. ) ;
#156 = CIRCLE ( 'NONE', #190, 4.000000000000000000 ) ;
#157 = ADVANCED_FACE ( 'NONE', ( #25 ), #222, .T. ) ;
#158 = ORIENTED_EDGE ( 'NONE', *, *, #214, .F. ) ;
#159 = DIRECTION ( 'NONE',  ( -1.000000000000000000, -0.000000000000000000, -0.000000000000000000 ) ) ;
#160 = DIRECTION ( 'NONE',  ( -1.000000000000000000, -0.000000000000000000, -0.000000000000000000 ) ) ;
#161 = CARTESIAN_POINT ( 'NONE',  ( -19.22539334065129069, 4.898587196589412829E-16, -4.000000000000000000 ) ) ;
#162 = DIRECTION ( 'NONE',  ( 0.000000000000000000, 0.000000000000000000, 1.000000000000000000 ) ) ;
#163 = CARTESIAN_POINT ( 'NONE',  ( 34.00000000000000000, 0.000000000000000000, 0.000000000000000000 ) ) ;
#164 = DIRECTION ( 'NONE',  ( -1.000000000000000000, 0.000000000000000000, -0.000000000000000000 ) ) ;
#165 = VERTEX_POINT ( 'NONE', #5 ) ;
#166 = DIRECTION ( 'NONE',  ( 0.000000000000000000, 0.000000000000000000, 1.000000000000000000 ) ) ;
#167 = COORDINATED_UNIVERSAL_TIME_OFFSET ( 1, 0, .AHEAD. ) ;
#168 = FACE_OUTER_BOUND ( 'NONE', #99, .T. ) ;
#169 = ORIENTED_EDGE ( 'NONE', *, *, #128, .F. ) ;
#170 = AXIS2_PLACEMENT_3D ( 'NONE', #73, #159, #7 ) ;
#171 = CARTESIAN_POINT ( 'NONE',  ( 12.00000000000000000, 0.000000000000000000, 0.000000000000000000 ) ) ;
#172 = APPROVAL_PERSON_ORGANIZATION ( #16, #12, #331 ) ;
#173 = VERTEX_POINT ( 'NONE', #307 ) ;
#174 = EDGE_CURVE ( 'NONE', #380, #72, #151, .T. ) ;
#175 = PERSON_AND_ORGANIZATION ( #232, #309 ) ;
#176 = APPROVAL_PERSON_ORGANIZATION ( #186, #30, #241 ) ;
#177 = ORIENTED_EDGE ( 'NONE', *, *, #201, .F. ) ;
#178 = AXIS2_PLACEMENT_3D ( 'NONE', #81, #283, #47 ) ;
#179 = APPROVAL_DATE_TIME ( #301, #70 ) ;
#180 = APPROVAL_STATUS ( 'not_yet_approved' ) ;
#181 = CONICAL_SURFACE ( 'NONE', #378, 3.500000000000000000, 0.09966865249116194092 ) ;
#182 = ORIENTED_EDGE ( 'NONE', *, *, #290, .F. ) ;
#183 = PRODUCT_DEFINITION_SHAPE ( 'NONE', 'NONE',  #235 ) ;
#184 = APPLICATION_PROTOCOL_DEFINITION ( 'international standard', 'config_control_design', 1994, #333 ) ;
#185 = DIRECTION ( 'NONE',  ( 0.000000000000000000, 0.000000000000000000, 1.000000000000000000 ) ) ;
#186 = PERSON_AND_ORGANIZATION ( #232, #309 ) ;
#187 = LINE ( 'NONE', #161, #325 ) ;
#188 = CARTESIAN_POINT ( 'NONE',  ( 34.00000000000000000, 4.286263797015736595E-16, -3.500000000000000000 ) ) ;
#189 = ADVANCED_FACE ( 'NONE', ( #297 ), #296, .T. ) ;
#190 = AXIS2_PLACEMENT_3D ( 'NONE', #111, #271, #112 ) ;
#191 = DIRECTION ( 'NONE',  ( 0.000000000000000000, 0.000000000000000000, 1.000000000000000000 ) ) ;
#192 = ADVANCED_FACE ( 'NONE', ( #382 ), #236, .T. ) ;
#193 = LINE ( 'NONE', #318, #60 ) ;
#194 = ORIENTED_EDGE ( 'NONE', *, *, #63, .F. ) ;
#195 = CARTESIAN_POINT ( 'NONE',  ( -19.22539334065129069, 0.000000000000000000, 0.000000000000000000 ) ) ;
#196 = ORIENTED_EDGE ( 'NONE', *, *, #17, .F. ) ;
#197 = ADVANCED_FACE ( 'NONE', ( #379 ), #322, .T. ) ;
#198 = DIRECTION ( 'NONE',  ( 0.000000000000000000, 0.000000000000000000, 1.000000000000000000 ) ) ;
#199 = DIRECTION ( 'NONE',  ( -1.000000000000000000, -0.000000000000000000, -0.000000000000000000 ) ) ;
#200 = CARTESIAN_POINT ( 'NONE',  ( 34.00000000000000000, 0.000000000000000000, 3.500000000000000000 ) ) ;
#201 = EDGE_CURVE ( 'NONE', #237, #304, #71, .T. ) ;
#202 = CARTESIAN_POINT ( 'NONE',  ( 0.000000000000000000, 0.000000000000000000, 3.000000000000000444 ) ) ;
#203 = CC_DESIGN_PERSON_AND_ORGANIZATION_ASSIGNMENT ( #51, #102, ( #235 ) ) ;
#204 = LINE ( 'NONE', #374, #216 ) ;
#205 = FACE_OUTER_BOUND ( 'NONE', #79, .T. ) ;
#206 = ORIENTED_EDGE ( 'NONE', *, *, #59, .F. ) ;
#207 = ORIENTED_EDGE ( 'NONE', *, *, #21, .T. ) ;
#208 = AXIS2_PLACEMENT_3D ( 'NONE', #83, #349, #355 ) ;
#209 = AXIS2_PLACEMENT_3D ( 'NONE', #163, #220, #119 ) ;
#210 = EDGE_LOOP ( 'NONE', ( #323, #32, #206, #169 ) ) ;
#211 = ADVANCED_FACE ( 'NONE', ( #278 ), #141, .T. ) ;
#212 = AXIS2_PLACEMENT_3D ( 'NONE', #45, #120, #166 ) ;
#213 = DIRECTION ( 'NONE',  ( -0.9950371902099890420, 1.218569110023238269E-17, -0.09950371902099881816 ) ) ;
#214 = EDGE_CURVE ( 'NONE', #383, #114, #156, .T. ) ;
#215 = DIRECTION ( 'NONE',  ( 0.000000000000000000, 0.000000000000000000, 1.000000000000000000 ) ) ;
#216 = VECTOR ( 'NONE', #75, 1000.000000000000000 ) ;
#217 = CIRCLE ( 'NONE', #209, 3.500000000000000000 ) ;
#218 = CARTESIAN_POINT ( 'NONE',  ( 17.00000000000000000, 0.000000000000000000, 6.000000000000000000 ) ) ;
#219 = DIRECTION ( 'NONE',  ( -1.000000000000000000, -0.000000000000000000, -0.000000000000000000 ) ) ;
#220 = DIRECTION ( 'NONE',  ( -1.000000000000000000, -0.000000000000000000, -0.000000000000000000 ) ) ;
#221 = LOCAL_TIME ( 18, 8, 47.00000000000000000, #167 ) ;
#222 = CONICAL_SURFACE ( 'NONE', #261, 6.000000000000000000, 0.1973955598498806641 ) ;
#223 = ORIENTED_EDGE ( 'NONE', *, *, #123, .T. ) ;
#224 =( GEOMETRIC_REPRESENTATION_CONTEXT ( 3 ) GLOBAL_UNCERTAINTY_ASSIGNED_CONTEXT ( ( #231 ) ) GLOBAL_UNIT_ASSIGNED_CONTEXT ( ( #29, #65, #335 ) ) REPRESENTATION_CONTEXT ( 'NONE', 'WORKASPACE' ) );
#225 = CARTESIAN_POINT ( 'NONE',  ( 17.00000000000000000, 0.000000000000000000, 0.000000000000000000 ) ) ;
#226 = CALENDAR_DATE ( 2024, 17, 1 ) ;
#227 = CALENDAR_DATE ( 2024, 17, 1 ) ;
#228 = EDGE_CURVE ( 'NONE', #61, #256, #204, .T. ) ;
#229 = EDGE_LOOP ( 'NONE', ( #286, #243, #359, #182 ) ) ;
#230 = ORIENTED_EDGE ( 'NONE', *, *, #288, .F. ) ;
#231 = UNCERTAINTY_MEASURE_WITH_UNIT (LENGTH_MEASURE( 1.000000000000000082E-05 ), #29, 'distance_accuracy_value', 'NONE');
#232 = PERSON ( 'UNSPECIFIED', 'UNSPECIFIED', 'UNSPECIFIED', ('UNSPECIFIED'), ('UNSPECIFIED'), ('UNSPECIFIED') ) ;
#233 = CIRCLE ( 'NONE', #84, 7.000000000000000000 ) ;
#234 = EDGE_LOOP ( 'NONE', ( #46, #6 ) ) ;
#235 = PRODUCT_DEFINITION ( 'UNKNOWN', '', #82, #250 ) ;
#236 = CONICAL_SURFACE ( 'NONE', #294, 6.000000000000000000, 0.1973955598498806641 ) ;
#237 = VERTEX_POINT ( 'NONE', #334 ) ;
#238 = AXIS2_PLACEMENT_3D ( 'NONE', #287, #77, #198 ) ;
#239 = PERSON_AND_ORGANIZATION ( #232, #309 ) ;
#240 = ORIENTED_EDGE ( 'NONE', *, *, #113, .F. ) ;
#241 = APPROVAL_ROLE ( '' ) ;
#242 = CYLINDRICAL_SURFACE ( 'NONE', #208, 4.000000000000000000 ) ;
#243 = ORIENTED_EDGE ( 'NONE', *, *, #201, .T. ) ;
#244 = ADVANCED_FACE ( 'NONE', ( #168 ), #305, .F. ) ;
#245 = AXIS2_PLACEMENT_3D ( 'NONE', #88, #50, #89 ) ;
#246 = DIRECTION ( 'NONE',  ( 0.000000000000000000, 0.000000000000000000, -1.000000000000000000 ) ) ;
#247 = CARTESIAN_POINT ( 'NONE',  ( 28.99999999999999645, 0.000000000000000000, 0.000000000000000000 ) ) ;
#248 = CARTESIAN_POINT ( 'NONE',  ( 12.00000000000000000, 0.000000000000000000, 0.000000000000000000 ) ) ;
#249 = EDGE_LOOP ( 'NONE', ( #381, #177 ) ) ;
#250 = DESIGN_CONTEXT ( 'detailed design', #266, 'design' ) ;
#251 = DIRECTION ( 'NONE',  ( -0.000000000000000000, 0.000000000000000000, 1.000000000000000000 ) ) ;
#252 = CARTESIAN_POINT ( 'NONE',  ( 0.000000000000000000, 0.000000000000000000, 0.000000000000000000 ) ) ;
#253 = AXIS2_PLACEMENT_3D ( 'NONE', #339, #375, #185 ) ;
#254 = CIRCLE ( 'NONE', #295, 4.000000000000000000 ) ;
#255 = EDGE_CURVE ( 'NONE', #237, #122, #149, .T. ) ;
#256 = VERTEX_POINT ( 'NONE', #277 ) ;
#257 = AXIS2_PLACEMENT_3D ( 'NONE', #55, #64, #98 ) ;
#258 = CARTESIAN_POINT ( 'NONE',  ( 17.00000000000000000, 0.000000000000000000, 4.000000000000000000 ) ) ;
#259 = CC_DESIGN_SECURITY_CLASSIFICATION ( #273, ( #82 ) ) ;
#260 = ORIENTED_EDGE ( 'NONE', *, *, #320, .F. ) ;
#261 = AXIS2_PLACEMENT_3D ( 'NONE', #324, #35, #343 ) ;
#262 = VECTOR ( 'NONE', #213, 1000.000000000000114 ) ;
#263 = EDGE_LOOP ( 'NONE', ( #362, #74, #194, #80 ) ) ;
#264 = AXIS2_PLACEMENT_3D ( 'NONE', #106, #10, #162 ) ;
#265 = LINE ( 'NONE', #200, #132 ) ;
#266 = APPLICATION_CONTEXT ( 'configuration controlled 3d designs of mechanical parts and assemblies' ) ;
#267 = LINE ( 'NONE', #124, #314 ) ;
#268 = VERTEX_POINT ( 'NONE', #280 ) ;
#269 = ADVANCED_FACE ( 'NONE', ( #44, #138 ), #33, .F. ) ;
#270 = APPLICATION_PROTOCOL_DEFINITION ( 'international standard', 'config_control_design', 1994, #266 ) ;
#271 = DIRECTION ( 'NONE',  ( -1.000000000000000000, -0.000000000000000000, -0.000000000000000000 ) ) ;
#272 = LINE ( 'NONE', #317, #285 ) ;
#273 = SECURITY_CLASSIFICATION ( '', '', #302 ) ;
#274 = DIRECTION ( 'NONE',  ( 0.000000000000000000, 0.000000000000000000, 1.000000000000000000 ) ) ;
#275 = ADVANCED_FACE ( 'NONE', ( #38, #357 ), #281, .F. ) ;
#276 = EDGE_CURVE ( 'NONE', #304, #332, #265, .T. ) ;
#277 = CARTESIAN_POINT ( 'NONE',  ( 12.00000000000000000, 0.000000000000000000, 7.000000000000000000 ) ) ;
#278 = FACE_OUTER_BOUND ( 'NONE', #210, .T. ) ;
#279 = CIRCLE ( 'NONE', #96, 7.000000000000000000 ) ;
#280 = CARTESIAN_POINT ( 'NONE',  ( 0.000000000000000000, 3.673940397442060361E-16, -3.000000000000000444 ) ) ;
#281 = PLANE ( 'NONE',  #178 ) ;
#282 = DIRECTION ( 'NONE',  ( -1.000000000000000000, -0.000000000000000000, -0.000000000000000000 ) ) ;
#283 = DIRECTION ( 'NONE',  ( 1.000000000000000000, 0.000000000000000000, 0.000000000000000000 ) ) ;
#284 = APPROVAL_DATE_TIME ( #94, #12 ) ;
#285 = VECTOR ( 'NONE', #352, 1000.000000000000000 ) ;
#286 = ORIENTED_EDGE ( 'NONE', *, *, #255, .F. ) ;
#287 = CARTESIAN_POINT ( 'NONE',  ( 28.99999999999999645, 0.000000000000000000, 0.000000000000000000 ) ) ;
#288 = EDGE_CURVE ( 'NONE', #332, #114, #95, .T. ) ;
#289 = PLANE ( 'NONE',  #34 ) ;
#290 = EDGE_CURVE ( 'NONE', #122, #332, #361, .T. ) ;
#291 = COORDINATED_UNIVERSAL_TIME_OFFSET ( 1, 0, .AHEAD. ) ;
#292 = ORIENTED_EDGE ( 'NONE', *, *, #1, .F. ) ;
#293 = PERSON_AND_ORGANIZATION ( #232, #309 ) ;
#294 = AXIS2_PLACEMENT_3D ( 'NONE', #134, #370, #274 ) ;
#295 = AXIS2_PLACEMENT_3D ( 'NONE', #225, #115, #313 ) ;
#296 = CONICAL_SURFACE ( 'NONE', #253, 3.500000000000000000, 0.09966865249116194092 ) ;
#297 = FACE_OUTER_BOUND ( 'NONE', #229, .T. ) ;
#298 = DIRECTION ( 'NONE',  ( -0.9805806756909202226, 2.401729971581267947E-17, -0.1961161351381839890 ) ) ;
#299 = DIRECTION ( 'NONE',  ( -1.000000000000000000, -0.000000000000000000, -0.000000000000000000 ) ) ;
#300 = PERSON_AND_ORGANIZATION_ROLE ( 'design_supplier' ) ;
#301 = DATE_AND_TIME ( #129, #107 ) ;
#302 = SECURITY_CLASSIFICATION_LEVEL ( 'unclassified' ) ;
#303 = COORDINATED_UNIVERSAL_TIME_OFFSET ( 1, 0, .AHEAD. ) ;
#304 = VERTEX_POINT ( 'NONE', #118 ) ;
#305 = PLANE ( 'NONE',  #319 ) ;
#306 = DATE_TIME_ROLE ( 'classification_date' ) ;
#307 = CARTESIAN_POINT ( 'NONE',  ( 12.00000000000000000, 8.572527594031473190E-16, -7.000000000000000000 ) ) ;
#308 = DIRECTION ( 'NONE',  ( -1.000000000000000000, -0.000000000000000000, -0.000000000000000000 ) ) ;
#309 = ORGANIZATION ( 'UNSPECIFIED', 'UNSPECIFIED', '' ) ;
#310 = EDGE_LOOP ( 'NONE', ( #68, #240 ) ) ;
#311 = ADVANCED_FACE ( 'NONE', ( #336 ), #242, .T. ) ;
#312 = DIRECTION ( 'NONE',  ( -1.000000000000000000, 0.000000000000000000, -0.000000000000000000 ) ) ;
#313 = DIRECTION ( 'NONE',  ( 0.000000000000000000, 0.000000000000000000, 1.000000000000000000 ) ) ;
#314 = VECTOR ( 'NONE', #299, 1000.000000000000000 ) ;
#315 = CARTESIAN_POINT ( 'NONE',  ( 17.00000000000000000, 6.000000000000000000, 0.000000000000000000 ) ) ;
#316 = ORIENTED_EDGE ( 'NONE', *, *, #288, .T. ) ;
#317 = CARTESIAN_POINT ( 'NONE',  ( -19.22539334065129069, 3.673940397442060361E-16, -3.000000000000000444 ) ) ;
#318 = CARTESIAN_POINT ( 'NONE',  ( 17.00000000000000000, 7.347880794884119736E-16, -6.000000000000000000 ) ) ;
#319 = AXIS2_PLACEMENT_3D ( 'NONE', #8, #37, #246 ) ;
#320 = EDGE_CURVE ( 'NONE', #72, #268, #272, .T. ) ;
#321 = CARTESIAN_POINT ( 'NONE',  ( 28.99999999999999645, 4.898587196589412829E-16, -4.000000000000000000 ) ) ;
#322 = CYLINDRICAL_SURFACE ( 'NONE', #15, 4.000000000000000000 ) ;
#323 = ORIENTED_EDGE ( 'NONE', *, *, #174, .T. ) ;
#324 = CARTESIAN_POINT ( 'NONE',  ( 17.00000000000000000, 0.000000000000000000, 0.000000000000000000 ) ) ;
#325 = VECTOR ( 'NONE', #199, 1000.000000000000000 ) ;
#326 = EDGE_LOOP ( 'NONE', ( #292, #3, #316, #158 ) ) ;
#327 = AXIS2_PLACEMENT_3D ( 'NONE', #252, #39, #76 ) ;
#328 = VECTOR ( 'NONE', #219, 1000.000000000000000 ) ;
#329 = VERTEX_POINT ( 'NONE', #202 ) ;
#330 = CARTESIAN_POINT ( 'NONE',  ( 17.00000000000000000, 0.000000000000000000, 0.000000000000000000 ) ) ;
#331 = APPROVAL_ROLE ( '' ) ;
#332 = VERTEX_POINT ( 'NONE', #42 ) ;
#333 = APPLICATION_CONTEXT ( 'configuration controlled 3d designs of mechanical parts and assemblies' ) ;
#334 = CARTESIAN_POINT ( 'NONE',  ( 34.00000000000000000, 4.592425496802573972E-16, -3.500000000000000000 ) ) ;
#335 =( NAMED_UNIT ( * ) SI_UNIT ( $, .STERADIAN. ) SOLID_ANGLE_UNIT ( ) );
#336 = FACE_OUTER_BOUND ( 'NONE', #92, .T. ) ;
#337 = AXIS2_PLACEMENT_3D ( 'NONE', #315, #164, #251 ) ;
#338 = ORIENTED_EDGE ( 'NONE', *, *, #113, .T. ) ;
#339 = CARTESIAN_POINT ( 'NONE',  ( 34.00000000000000000, 0.000000000000000000, 0.000000000000000000 ) ) ;
#340 = DIRECTION ( 'NONE',  ( 0.000000000000000000, 0.000000000000000000, 1.000000000000000000 ) ) ;
#341 = DIRECTION ( 'NONE',  ( 0.000000000000000000, 0.000000000000000000, 1.000000000000000000 ) ) ;
#342 = ADVANCED_BREP_SHAPE_REPRESENTATION ( 'OTC02I', ( #85, #257 ), #224 ) ;
#343 = DIRECTION ( 'NONE',  ( 0.000000000000000000, 0.000000000000000000, 1.000000000000000000 ) ) ;
#344 = PERSON_AND_ORGANIZATION ( #232, #309 ) ;
#345 = ADVANCED_FACE ( 'NONE', ( #376 ), #18, .T. ) ;
#346 = DIRECTION ( 'NONE',  ( -0.000000000000000000, 0.000000000000000000, 1.000000000000000000 ) ) ;
#347 = ORIENTED_EDGE ( 'NONE', *, *, #155, .F. ) ;
#348 = CARTESIAN_POINT ( 'NONE',  ( 12.00000000000000000, 0.000000000000000000, 3.000000000000000444 ) ) ;
#349 = DIRECTION ( 'NONE',  ( -1.000000000000000000, -0.000000000000000000, -0.000000000000000000 ) ) ;
#350 = DIRECTION ( 'NONE',  ( 0.000000000000000000, 0.000000000000000000, 1.000000000000000000 ) ) ;
#351 = AXIS2_PLACEMENT_3D ( 'NONE', #117, #139, #341 ) ;
#352 = DIRECTION ( 'NONE',  ( -1.000000000000000000, -0.000000000000000000, -0.000000000000000000 ) ) ;
#353 = CALENDAR_DATE ( 2024, 17, 1 ) ;
#354 = CC_DESIGN_DATE_AND_TIME_ASSIGNMENT ( #24, #101, ( #235 ) ) ;
#355 = DIRECTION ( 'NONE',  ( 0.000000000000000000, 0.000000000000000000, 1.000000000000000000 ) ) ;
#356 = DIRECTION ( 'NONE',  ( -1.000000000000000000, -0.000000000000000000, -0.000000000000000000 ) ) ;
#357 = FACE_OUTER_BOUND ( 'NONE', #234, .T. ) ;
#358 = EDGE_LOOP ( 'NONE', ( #19, #223, #87, #126 ) ) ;
#359 = ORIENTED_EDGE ( 'NONE', *, *, #276, .T. ) ;
#360 = PRODUCT ( 'OTC02I', 'OTC02I', '', ( #369 ) ) ;
#361 = CIRCLE ( 'NONE', #238, 4.000000000000000000 ) ;
#362 = ORIENTED_EDGE ( 'NONE', *, *, #135, .T. ) ;
#363 = APPROVAL_PERSON_ORGANIZATION ( #344, #70, #69 ) ;
#364 = ORIENTED_EDGE ( 'NONE', *, *, #155, .T. ) ;
#365 = EDGE_CURVE ( 'NONE', #114, #383, #254, .T. ) ;
#366 = PERSON_AND_ORGANIZATION_ROLE ( 'creator' ) ;
#367 = AXIS2_PLACEMENT_3D ( 'NONE', #133, #110, #372 ) ;
#368 = COORDINATED_UNIVERSAL_TIME_OFFSET ( 1, 0, .AHEAD. ) ;
#369 = MECHANICAL_CONTEXT ( 'NONE', #333, 'mechanical' ) ;
#370 = DIRECTION ( 'NONE',  ( -1.000000000000000000, -0.000000000000000000, -0.000000000000000000 ) ) ;
#371 = CC_DESIGN_PERSON_AND_ORGANIZATION_ASSIGNMENT ( #175, #366, ( #82 ) ) ;
#372 = DIRECTION ( 'NONE',  ( 0.000000000000000000, 0.000000000000000000, 1.000000000000000000 ) ) ;
#373 = EDGE_LOOP ( 'NONE', ( #260, #338, #91, #196 ) ) ;
#374 = CARTESIAN_POINT ( 'NONE',  ( 17.00000000000000000, 0.000000000000000000, 6.000000000000000000 ) ) ;
#375 = DIRECTION ( 'NONE',  ( -1.000000000000000000, -0.000000000000000000, -0.000000000000000000 ) ) ;
#376 = FACE_OUTER_BOUND ( 'NONE', #373, .T. ) ;
#377 = ORIENTED_EDGE ( 'NONE', *, *, #17, .T. ) ;
#378 = AXIS2_PLACEMENT_3D ( 'NONE', #11, #282, #54 ) ;
#379 = FACE_OUTER_BOUND ( 'NONE', #326, .T. ) ;
#380 = VERTEX_POINT ( 'NONE', #348 ) ;
#381 = ORIENTED_EDGE ( 'NONE', *, *, #21, .F. ) ;
#382 = FACE_OUTER_BOUND ( 'NONE', #358, .T. ) ;
#383 = VERTEX_POINT ( 'NONE', #43 ) ;
#384 = EDGE_CURVE ( 'NONE', #165, #173, #193, .T. ) ;
#385 = ORIENTED_EDGE ( 'NONE', *, *, #255, .T. ) ;
ENDSEC;
END-ISO-10303-21;
