ISO-10303-21;
HEADER;
/* Generated by software containing ST-Developer
 * from STEP Tools, Inc. (www.steptools.com) 
 */

FILE_DESCRIPTION(
/* description */ (''),
/* implementation_level */ '2;1');

FILE_NAME(
/* name */ 'support bquille ALU V1 X2.step',
/* time_stamp */ '2024-02-25T22:45:25+01:00',
/* author */ (''),
/* organization */ (''),
/* preprocessor_version */ 'ST-DEVELOPER v20',
/* originating_system */ 'Autodesk Translation Framework v12.20.1.177',

/* authorisation */ '');

FILE_SCHEMA (('AUTOMOTIVE_DESIGN { 1 0 10303 214 3 1 1 }'));
ENDSEC;

DATA;
#10=MECHANICAL_DESIGN_GEOMETRIC_PRESENTATION_REPRESENTATION('',(#13),#221);
#11=SHAPE_REPRESENTATION_RELATIONSHIP('SRR','None',#228,#12);
#12=ADVANCED_BREP_SHAPE_REPRESENTATION('',(#14),#220);
#13=STYLED_ITEM('',(#238),#14);
#14=MANIFOLD_SOLID_BREP('Corps1',#116);
#15=TOROIDAL_SURFACE('',#142,10.2146346888,1.21463468879905);
#16=CONICAL_SURFACE('',#139,15.6571451122349,0.438620253096685);
#17=LINE('',#195,#21);
#18=LINE('',#203,#22);
#19=LINE('',#208,#23);
#20=LINE('',#217,#24);
#21=VECTOR('',#157,4.);
#22=VECTOR('',#168,20.);
#23=VECTOR('',#173,15.6571451122349);
#24=VECTOR('',#186,9.00000000000095);
#25=CYLINDRICAL_SURFACE('',#133,4.);
#26=CYLINDRICAL_SURFACE('',#137,20.);
#27=CYLINDRICAL_SURFACE('',#146,9.00000000000095);
#28=FACE_BOUND('',#38,.T.);
#29=FACE_BOUND('',#41,.T.);
#30=FACE_OUTER_BOUND('',#37,.T.);
#31=FACE_OUTER_BOUND('',#39,.T.);
#32=FACE_OUTER_BOUND('',#40,.T.);
#33=FACE_OUTER_BOUND('',#42,.T.);
#34=FACE_OUTER_BOUND('',#43,.T.);
#35=FACE_OUTER_BOUND('',#44,.T.);
#36=FACE_OUTER_BOUND('',#45,.T.);
#37=EDGE_LOOP('',(#79));
#38=EDGE_LOOP('',(#80));
#39=EDGE_LOOP('',(#81,#82,#83,#84));
#40=EDGE_LOOP('',(#85));
#41=EDGE_LOOP('',(#86));
#42=EDGE_LOOP('',(#87,#88,#89,#90));
#43=EDGE_LOOP('',(#91,#92,#93,#94,#95));
#44=EDGE_LOOP('',(#96,#97,#98,#99,#100,#101));
#45=EDGE_LOOP('',(#102,#103,#104,#105,#106));
#46=CIRCLE('',#131,9.00000000000095);
#47=CIRCLE('',#132,4.);
#48=CIRCLE('',#134,4.);
#49=CIRCLE('',#136,20.);
#50=CIRCLE('',#138,20.);
#51=CIRCLE('',#140,11.3142902244699);
#52=CIRCLE('',#141,11.3142902244699);
#53=CIRCLE('',#143,9.00000000000095);
#54=CIRCLE('',#144,9.00000000000095);
#55=CIRCLE('',#145,1.21463468879905);
#56=VERTEX_POINT('',#189);
#57=VERTEX_POINT('',#191);
#58=VERTEX_POINT('',#194);
#59=VERTEX_POINT('',#198);
#60=VERTEX_POINT('',#201);
#61=VERTEX_POINT('',#205);
#62=VERTEX_POINT('',#206);
#63=VERTEX_POINT('',#211);
#64=VERTEX_POINT('',#212);
#65=EDGE_CURVE('',#56,#56,#46,.T.);
#66=EDGE_CURVE('',#57,#57,#47,.T.);
#67=EDGE_CURVE('',#57,#58,#17,.T.);
#68=EDGE_CURVE('',#58,#58,#48,.T.);
#69=EDGE_CURVE('',#59,#59,#49,.T.);
#70=EDGE_CURVE('',#60,#60,#50,.T.);
#71=EDGE_CURVE('',#60,#59,#18,.T.);
#72=EDGE_CURVE('',#61,#62,#51,.T.);
#73=EDGE_CURVE('',#61,#60,#19,.T.);
#74=EDGE_CURVE('',#62,#61,#52,.T.);
#75=EDGE_CURVE('',#63,#64,#53,.T.);
#76=EDGE_CURVE('',#64,#63,#54,.T.);
#77=EDGE_CURVE('',#64,#62,#55,.T.);
#78=EDGE_CURVE('',#63,#56,#20,.T.);
#79=ORIENTED_EDGE('',*,*,#65,.T.);
#80=ORIENTED_EDGE('',*,*,#66,.F.);
#81=ORIENTED_EDGE('',*,*,#66,.T.);
#82=ORIENTED_EDGE('',*,*,#67,.T.);
#83=ORIENTED_EDGE('',*,*,#68,.F.);
#84=ORIENTED_EDGE('',*,*,#67,.F.);
#85=ORIENTED_EDGE('',*,*,#69,.F.);
#86=ORIENTED_EDGE('',*,*,#68,.T.);
#87=ORIENTED_EDGE('',*,*,#70,.F.);
#88=ORIENTED_EDGE('',*,*,#71,.T.);
#89=ORIENTED_EDGE('',*,*,#69,.T.);
#90=ORIENTED_EDGE('',*,*,#71,.F.);
#91=ORIENTED_EDGE('',*,*,#72,.F.);
#92=ORIENTED_EDGE('',*,*,#73,.T.);
#93=ORIENTED_EDGE('',*,*,#70,.T.);
#94=ORIENTED_EDGE('',*,*,#73,.F.);
#95=ORIENTED_EDGE('',*,*,#74,.F.);
#96=ORIENTED_EDGE('',*,*,#75,.F.);
#97=ORIENTED_EDGE('',*,*,#76,.F.);
#98=ORIENTED_EDGE('',*,*,#77,.T.);
#99=ORIENTED_EDGE('',*,*,#74,.T.);
#100=ORIENTED_EDGE('',*,*,#72,.T.);
#101=ORIENTED_EDGE('',*,*,#77,.F.);
#102=ORIENTED_EDGE('',*,*,#75,.T.);
#103=ORIENTED_EDGE('',*,*,#76,.T.);
#104=ORIENTED_EDGE('',*,*,#78,.T.);
#105=ORIENTED_EDGE('',*,*,#65,.F.);
#106=ORIENTED_EDGE('',*,*,#78,.F.);
#107=PLANE('',#130);
#108=PLANE('',#135);
#109=ADVANCED_FACE('',(#30,#28),#107,.T.);
#110=ADVANCED_FACE('',(#31),#25,.F.);
#111=ADVANCED_FACE('',(#32,#29),#108,.T.);
#112=ADVANCED_FACE('',(#33),#26,.T.);
#113=ADVANCED_FACE('',(#34),#16,.T.);
#114=ADVANCED_FACE('',(#35),#15,.T.);
#115=ADVANCED_FACE('',(#36),#27,.F.);
#116=CLOSED_SHELL('',(#109,#110,#111,#112,#113,#114,#115));
#117=DERIVED_UNIT_ELEMENT(#119,1.);
#118=DERIVED_UNIT_ELEMENT(#223,-3.);
#119=(
MASS_UNIT()
NAMED_UNIT(*)
SI_UNIT(.KILO.,.GRAM.)
);
#120=DERIVED_UNIT((#117,#118));
#121=MEASURE_REPRESENTATION_ITEM('density measure',
POSITIVE_RATIO_MEASURE(7850.),#120);
#122=PROPERTY_DEFINITION_REPRESENTATION(#127,#124);
#123=PROPERTY_DEFINITION_REPRESENTATION(#128,#125);
#124=REPRESENTATION('material name',(#126),#220);
#125=REPRESENTATION('density',(#121),#220);
#126=DESCRIPTIVE_REPRESENTATION_ITEM('Acier','Acier');
#127=PROPERTY_DEFINITION('material property','material name',#230);
#128=PROPERTY_DEFINITION('material property','density of part',#230);
#129=AXIS2_PLACEMENT_3D('',#187,#147,#148);
#130=AXIS2_PLACEMENT_3D('',#188,#149,#150);
#131=AXIS2_PLACEMENT_3D('',#190,#151,#152);
#132=AXIS2_PLACEMENT_3D('',#192,#153,#154);
#133=AXIS2_PLACEMENT_3D('',#193,#155,#156);
#134=AXIS2_PLACEMENT_3D('',#196,#158,#159);
#135=AXIS2_PLACEMENT_3D('',#197,#160,#161);
#136=AXIS2_PLACEMENT_3D('',#199,#162,#163);
#137=AXIS2_PLACEMENT_3D('',#200,#164,#165);
#138=AXIS2_PLACEMENT_3D('',#202,#166,#167);
#139=AXIS2_PLACEMENT_3D('',#204,#169,#170);
#140=AXIS2_PLACEMENT_3D('',#207,#171,#172);
#141=AXIS2_PLACEMENT_3D('',#209,#174,#175);
#142=AXIS2_PLACEMENT_3D('',#210,#176,#177);
#143=AXIS2_PLACEMENT_3D('',#213,#178,#179);
#144=AXIS2_PLACEMENT_3D('',#214,#180,#181);
#145=AXIS2_PLACEMENT_3D('',#215,#182,#183);
#146=AXIS2_PLACEMENT_3D('',#216,#184,#185);
#147=DIRECTION('axis',(0.,0.,1.));
#148=DIRECTION('refdir',(1.,0.,0.));
#149=DIRECTION('center_axis',(0.,0.,-1.));
#150=DIRECTION('ref_axis',(-1.,0.,0.));
#151=DIRECTION('center_axis',(0.,0.,-1.));
#152=DIRECTION('ref_axis',(1.,0.,0.));
#153=DIRECTION('center_axis',(0.,0.,-1.));
#154=DIRECTION('ref_axis',(1.,0.,0.));
#155=DIRECTION('center_axis',(0.,0.,-1.));
#156=DIRECTION('ref_axis',(0.,1.,0.));
#157=DIRECTION('',(0.,0.,1.));
#158=DIRECTION('center_axis',(0.,0.,-1.));
#159=DIRECTION('ref_axis',(1.,0.,0.));
#160=DIRECTION('center_axis',(0.,0.,1.));
#161=DIRECTION('ref_axis',(1.,0.,0.));
#162=DIRECTION('center_axis',(0.,0.,-1.));
#163=DIRECTION('ref_axis',(1.,0.,0.));
#164=DIRECTION('center_axis',(0.,0.,-1.));
#165=DIRECTION('ref_axis',(0.,1.,0.));
#166=DIRECTION('center_axis',(0.,0.,-1.));
#167=DIRECTION('ref_axis',(1.,0.,0.));
#168=DIRECTION('',(0.,0.,1.));
#169=DIRECTION('center_axis',(0.,0.,1.));
#170=DIRECTION('ref_axis',(0.,1.,0.));
#171=DIRECTION('center_axis',(0.,0.,-1.));
#172=DIRECTION('ref_axis',(1.,0.,0.));
#173=DIRECTION('',(-5.20096145235472E-17,-0.424690731725738,0.905338490503004));
#174=DIRECTION('center_axis',(0.,0.,-1.));
#175=DIRECTION('ref_axis',(1.,0.,0.));
#176=DIRECTION('center_axis',(0.,0.,-1.));
#177=DIRECTION('ref_axis',(-1.,0.,0.));
#178=DIRECTION('center_axis',(0.,0.,-1.));
#179=DIRECTION('ref_axis',(1.,0.,0.));
#180=DIRECTION('center_axis',(0.,0.,-1.));
#181=DIRECTION('ref_axis',(1.,0.,0.));
#182=DIRECTION('center_axis',(-1.22464679914735E-16,-1.,0.));
#183=DIRECTION('ref_axis',(1.,-1.22464679914735E-16,0.));
#184=DIRECTION('center_axis',(0.,0.,-1.));
#185=DIRECTION('ref_axis',(0.,1.,0.));
#186=DIRECTION('',(0.,0.,1.));
#187=CARTESIAN_POINT('',(0.,0.,0.));
#188=CARTESIAN_POINT('Origin',(0.,4.,-163.));
#189=CARTESIAN_POINT('',(-1.10218211923273E-15,-9.00000000000095,-163.));
#190=CARTESIAN_POINT('Origin',(0.,0.,-163.));
#191=CARTESIAN_POINT('',(-4.89858719658941E-16,-4.,-163.));
#192=CARTESIAN_POINT('Origin',(0.,0.,-163.));
#193=CARTESIAN_POINT('Origin',(0.,0.,-153.));
#194=CARTESIAN_POINT('',(-4.89858719658941E-16,-4.,-143.));
#195=CARTESIAN_POINT('',(-4.89858719658941E-16,-4.,-153.));
#196=CARTESIAN_POINT('Origin',(0.,0.,-143.));
#197=CARTESIAN_POINT('Origin',(0.,20.,-143.));
#198=CARTESIAN_POINT('',(-2.44929359829471E-15,-20.,-143.));
#199=CARTESIAN_POINT('Origin',(0.,0.,-143.));
#200=CARTESIAN_POINT('Origin',(0.,0.,-145.5));
#201=CARTESIAN_POINT('',(-2.44929359829471E-15,-20.,-148.));
#202=CARTESIAN_POINT('Origin',(0.,0.,-148.));
#203=CARTESIAN_POINT('',(-2.44929359829471E-15,-20.,-145.5));
#204=CARTESIAN_POINT('Origin',(0.,0.,-157.257922047383));
#205=CARTESIAN_POINT('',(-1.38560093080212E-15,-11.3142902244698,-166.515844094766));
#206=CARTESIAN_POINT('',(11.3142902244699,-1.38560093080213E-15,-166.515844094766));
#207=CARTESIAN_POINT('Origin',(0.,0.,-166.515844094766));
#208=CARTESIAN_POINT('',(-1.91744726454841E-15,-15.6571451122349,-157.257922047383));
#209=CARTESIAN_POINT('Origin',(0.,0.,-166.515844094766));
#210=CARTESIAN_POINT('Origin',(0.,0.,-166.));
#211=CARTESIAN_POINT('',(-1.10218211923273E-15,-9.00000000000095,-166.));
#212=CARTESIAN_POINT('',(9.00000000000095,-1.10218211923273E-15,-166.));
#213=CARTESIAN_POINT('Origin',(0.,0.,-166.));
#214=CARTESIAN_POINT('Origin',(0.,0.,-166.));
#215=CARTESIAN_POINT('Origin',(10.2146346888,-1.25093196760984E-15,-166.));
#216=CARTESIAN_POINT('Origin',(0.,0.,-164.5));
#217=CARTESIAN_POINT('',(-1.10218211923273E-15,-9.00000000000095,-164.5));
#218=UNCERTAINTY_MEASURE_WITH_UNIT(LENGTH_MEASURE(0.01),#222,
'DISTANCE_ACCURACY_VALUE',
'Maximum model space distance between geometric entities at asserted c
onnectivities');
#219=UNCERTAINTY_MEASURE_WITH_UNIT(LENGTH_MEASURE(0.01),#222,
'DISTANCE_ACCURACY_VALUE',
'Maximum model space distance between geometric entities at asserted c
onnectivities');
#220=(
GEOMETRIC_REPRESENTATION_CONTEXT(3)
GLOBAL_UNCERTAINTY_ASSIGNED_CONTEXT((#218))
GLOBAL_UNIT_ASSIGNED_CONTEXT((#222,#224,#225))
REPRESENTATION_CONTEXT('','3D')
);
#221=(
GEOMETRIC_REPRESENTATION_CONTEXT(3)
GLOBAL_UNCERTAINTY_ASSIGNED_CONTEXT((#219))
GLOBAL_UNIT_ASSIGNED_CONTEXT((#222,#224,#225))
REPRESENTATION_CONTEXT('','3D')
);
#222=(
LENGTH_UNIT()
NAMED_UNIT(*)
SI_UNIT(.MILLI.,.METRE.)
);
#223=(
LENGTH_UNIT()
NAMED_UNIT(*)
SI_UNIT($,.METRE.)
);
#224=(
NAMED_UNIT(*)
PLANE_ANGLE_UNIT()
SI_UNIT($,.RADIAN.)
);
#225=(
NAMED_UNIT(*)
SI_UNIT($,.STERADIAN.)
SOLID_ANGLE_UNIT()
);
#226=SHAPE_DEFINITION_REPRESENTATION(#227,#228);
#227=PRODUCT_DEFINITION_SHAPE('',$,#230);
#228=SHAPE_REPRESENTATION('',(#129),#220);
#229=PRODUCT_DEFINITION_CONTEXT('part definition',#234,'design');
#230=PRODUCT_DEFINITION('support b\X\E9quille','support b\X\E9quille',#231,
#229);
#231=PRODUCT_DEFINITION_FORMATION('',$,#236);
#232=PRODUCT_RELATED_PRODUCT_CATEGORY('support b\X\E9quille',
'support b\X\E9quille',(#236));
#233=APPLICATION_PROTOCOL_DEFINITION('international standard',
'automotive_design',2009,#234);
#234=APPLICATION_CONTEXT(
'Core Data for Automotive Mechanical Design Process');
#235=PRODUCT_CONTEXT('part definition',#234,'mechanical');
#236=PRODUCT('support b\X\E9quille','support b\X\E9quille',$,(#235));
#237=PRESENTATION_STYLE_ASSIGNMENT((#239));
#238=PRESENTATION_STYLE_ASSIGNMENT((#240));
#239=SURFACE_STYLE_USAGE(.BOTH.,#241);
#240=SURFACE_STYLE_USAGE(.BOTH.,#242);
#241=SURFACE_SIDE_STYLE('',(#243));
#242=SURFACE_SIDE_STYLE('',(#244));
#243=SURFACE_STYLE_FILL_AREA(#245);
#244=SURFACE_STYLE_FILL_AREA(#246);
#245=FILL_AREA_STYLE('Acier - Satin\X\E9',(#247));
#246=FILL_AREA_STYLE('Nylon 6-6 (blanc)',(#248));
#247=FILL_AREA_STYLE_COLOUR('Acier - Satin\X\E9',#249);
#248=FILL_AREA_STYLE_COLOUR('Nylon 6-6 (blanc)',#250);
#249=COLOUR_RGB('Acier - Satin\X\E9',0.627450980392157,0.627450980392157,
0.627450980392157);
#250=COLOUR_RGB('Nylon 6-6 (blanc)',0.972549019607843,0.968627450980392,
0.929411764705882);
ENDSEC;
END-ISO-10303-21;
