ISO-10303-21;
HEADER;
/* Generated by software containing ST-Developer
 * from STEP Tools, Inc. (www.steptools.com) 
 */

FILE_DESCRIPTION(
/* description */ (''),
/* implementation_level */ '2;1');

FILE_NAME(
/* name */ 'BRIDE MOTEUR ARR BAS DROIT (v3~recovered).step',
/* time_stamp */ '2024-02-08T17:56:08+01:00',
/* author */ (''),
/* organization */ (''),
/* preprocessor_version */ 'ST-DEVELOPER v20',
/* originating_system */ 'Autodesk Translation Framework v12.14.0.127',

/* authorisation */ '');

FILE_SCHEMA (('AUTOMOTIVE_DESIGN { 1 0 10303 214 3 1 1 }'));
ENDSEC;

DATA;
#10=MECHANICAL_DESIGN_GEOMETRIC_PRESENTATION_REPRESENTATION('',(#13),#356);
#11=SHAPE_REPRESENTATION_RELATIONSHIP('SRR','None',#363,#12);
#12=ADVANCED_BREP_SHAPE_REPRESENTATION('',(#14),#355);
#13=STYLED_ITEM('',(#372),#14);
#14=MANIFOLD_SOLID_BREP('Corps1',#204);
#15=PLANE('',#221);
#16=PLANE('',#223);
#17=PLANE('',#226);
#18=PLANE('',#229);
#19=PLANE('',#230);
#20=PLANE('',#233);
#21=PLANE('',#236);
#22=FACE_OUTER_BOUND('',#33,.T.);
#23=FACE_OUTER_BOUND('',#34,.T.);
#24=FACE_OUTER_BOUND('',#35,.T.);
#25=FACE_OUTER_BOUND('',#36,.T.);
#26=FACE_OUTER_BOUND('',#37,.T.);
#27=FACE_OUTER_BOUND('',#38,.T.);
#28=FACE_OUTER_BOUND('',#39,.T.);
#29=FACE_OUTER_BOUND('',#40,.T.);
#30=FACE_OUTER_BOUND('',#41,.T.);
#31=FACE_OUTER_BOUND('',#42,.T.);
#32=FACE_OUTER_BOUND('',#43,.T.);
#33=EDGE_LOOP('',(#135,#136,#137,#138));
#34=EDGE_LOOP('',(#139,#140,#141,#142));
#35=EDGE_LOOP('',(#143,#144,#145,#146,#147,#148,#149));
#36=EDGE_LOOP('',(#150,#151,#152,#153,#154,#155));
#37=EDGE_LOOP('',(#156,#157,#158,#159));
#38=EDGE_LOOP('',(#160,#161,#162,#163,#164,#165));
#39=EDGE_LOOP('',(#166,#167,#168,#169));
#40=EDGE_LOOP('',(#170,#171,#172,#173));
#41=EDGE_LOOP('',(#174,#175,#176,#177));
#42=EDGE_LOOP('',(#178,#179,#180,#181));
#43=EDGE_LOOP('',(#182,#183,#184,#185,#186,#187,#188));
#44=LINE('',#302,#63);
#45=LINE('',#305,#64);
#46=LINE('',#308,#65);
#47=LINE('',#310,#66);
#48=LINE('',#314,#67);
#49=LINE('',#318,#68);
#50=LINE('',#322,#69);
#51=LINE('',#323,#70);
#52=LINE('',#326,#71);
#53=LINE('',#328,#72);
#54=LINE('',#329,#73);
#55=LINE('',#332,#74);
#56=LINE('',#336,#75);
#57=LINE('',#337,#76);
#58=LINE('',#340,#77);
#59=LINE('',#341,#78);
#60=LINE('',#345,#79);
#61=LINE('',#348,#80);
#62=LINE('',#349,#81);
#63=VECTOR('',#243,10.);
#64=VECTOR('',#246,10.);
#65=VECTOR('',#249,10.);
#66=VECTOR('',#250,10.);
#67=VECTOR('',#255,10.);
#68=VECTOR('',#258,10.);
#69=VECTOR('',#261,10.);
#70=VECTOR('',#262,10.);
#71=VECTOR('',#265,10.);
#72=VECTOR('',#266,10.);
#73=VECTOR('',#267,10.);
#74=VECTOR('',#270,10.);
#75=VECTOR('',#275,10.);
#76=VECTOR('',#276,10.);
#77=VECTOR('',#279,10.);
#78=VECTOR('',#280,10.);
#79=VECTOR('',#285,10.);
#80=VECTOR('',#288,10.);
#81=VECTOR('',#289,10.);
#82=CIRCLE('',#219,12.);
#83=CIRCLE('',#220,12.);
#84=CIRCLE('',#222,5.);
#85=CIRCLE('',#224,17.5);
#86=CIRCLE('',#225,17.5);
#87=CIRCLE('',#228,5.);
#88=CIRCLE('',#232,17.5);
#89=CIRCLE('',#235,17.5);
#90=VERTEX_POINT('',#298);
#91=VERTEX_POINT('',#299);
#92=VERTEX_POINT('',#301);
#93=VERTEX_POINT('',#303);
#94=VERTEX_POINT('',#307);
#95=VERTEX_POINT('',#309);
#96=VERTEX_POINT('',#313);
#97=VERTEX_POINT('',#315);
#98=VERTEX_POINT('',#317);
#99=VERTEX_POINT('',#319);
#100=VERTEX_POINT('',#321);
#101=VERTEX_POINT('',#325);
#102=VERTEX_POINT('',#327);
#103=VERTEX_POINT('',#331);
#104=VERTEX_POINT('',#335);
#105=VERTEX_POINT('',#339);
#106=VERTEX_POINT('',#343);
#107=VERTEX_POINT('',#347);
#108=EDGE_CURVE('',#90,#91,#82,.T.);
#109=EDGE_CURVE('',#92,#90,#44,.T.);
#110=EDGE_CURVE('',#92,#93,#83,.T.);
#111=EDGE_CURVE('',#91,#93,#45,.T.);
#112=EDGE_CURVE('',#93,#94,#46,.T.);
#113=EDGE_CURVE('',#95,#92,#47,.T.);
#114=EDGE_CURVE('',#94,#95,#84,.T.);
#115=EDGE_CURVE('',#91,#96,#48,.T.);
#116=EDGE_CURVE('',#96,#97,#85,.T.);
#117=EDGE_CURVE('',#97,#98,#49,.T.);
#118=EDGE_CURVE('',#98,#99,#86,.T.);
#119=EDGE_CURVE('',#99,#100,#50,.T.);
#120=EDGE_CURVE('',#100,#90,#51,.T.);
#121=EDGE_CURVE('',#101,#94,#52,.T.);
#122=EDGE_CURVE('',#101,#102,#53,.T.);
#123=EDGE_CURVE('',#102,#96,#54,.T.);
#124=EDGE_CURVE('',#103,#95,#55,.T.);
#125=EDGE_CURVE('',#101,#103,#87,.T.);
#126=EDGE_CURVE('',#104,#100,#56,.T.);
#127=EDGE_CURVE('',#103,#104,#57,.T.);
#128=EDGE_CURVE('',#105,#104,#58,.T.);
#129=EDGE_CURVE('',#105,#99,#59,.T.);
#130=EDGE_CURVE('',#105,#106,#88,.T.);
#131=EDGE_CURVE('',#106,#98,#60,.T.);
#132=EDGE_CURVE('',#106,#107,#61,.T.);
#133=EDGE_CURVE('',#107,#97,#62,.T.);
#134=EDGE_CURVE('',#102,#107,#89,.T.);
#135=ORIENTED_EDGE('',*,*,#108,.F.);
#136=ORIENTED_EDGE('',*,*,#109,.F.);
#137=ORIENTED_EDGE('',*,*,#110,.T.);
#138=ORIENTED_EDGE('',*,*,#111,.F.);
#139=ORIENTED_EDGE('',*,*,#112,.F.);
#140=ORIENTED_EDGE('',*,*,#110,.F.);
#141=ORIENTED_EDGE('',*,*,#113,.F.);
#142=ORIENTED_EDGE('',*,*,#114,.F.);
#143=ORIENTED_EDGE('',*,*,#108,.T.);
#144=ORIENTED_EDGE('',*,*,#115,.T.);
#145=ORIENTED_EDGE('',*,*,#116,.T.);
#146=ORIENTED_EDGE('',*,*,#117,.T.);
#147=ORIENTED_EDGE('',*,*,#118,.T.);
#148=ORIENTED_EDGE('',*,*,#119,.T.);
#149=ORIENTED_EDGE('',*,*,#120,.T.);
#150=ORIENTED_EDGE('',*,*,#111,.T.);
#151=ORIENTED_EDGE('',*,*,#112,.T.);
#152=ORIENTED_EDGE('',*,*,#121,.F.);
#153=ORIENTED_EDGE('',*,*,#122,.T.);
#154=ORIENTED_EDGE('',*,*,#123,.T.);
#155=ORIENTED_EDGE('',*,*,#115,.F.);
#156=ORIENTED_EDGE('',*,*,#114,.T.);
#157=ORIENTED_EDGE('',*,*,#124,.F.);
#158=ORIENTED_EDGE('',*,*,#125,.F.);
#159=ORIENTED_EDGE('',*,*,#121,.T.);
#160=ORIENTED_EDGE('',*,*,#109,.T.);
#161=ORIENTED_EDGE('',*,*,#120,.F.);
#162=ORIENTED_EDGE('',*,*,#126,.F.);
#163=ORIENTED_EDGE('',*,*,#127,.F.);
#164=ORIENTED_EDGE('',*,*,#124,.T.);
#165=ORIENTED_EDGE('',*,*,#113,.T.);
#166=ORIENTED_EDGE('',*,*,#128,.T.);
#167=ORIENTED_EDGE('',*,*,#126,.T.);
#168=ORIENTED_EDGE('',*,*,#119,.F.);
#169=ORIENTED_EDGE('',*,*,#129,.F.);
#170=ORIENTED_EDGE('',*,*,#130,.F.);
#171=ORIENTED_EDGE('',*,*,#129,.T.);
#172=ORIENTED_EDGE('',*,*,#118,.F.);
#173=ORIENTED_EDGE('',*,*,#131,.F.);
#174=ORIENTED_EDGE('',*,*,#132,.F.);
#175=ORIENTED_EDGE('',*,*,#131,.T.);
#176=ORIENTED_EDGE('',*,*,#117,.F.);
#177=ORIENTED_EDGE('',*,*,#133,.F.);
#178=ORIENTED_EDGE('',*,*,#134,.T.);
#179=ORIENTED_EDGE('',*,*,#133,.T.);
#180=ORIENTED_EDGE('',*,*,#116,.F.);
#181=ORIENTED_EDGE('',*,*,#123,.F.);
#182=ORIENTED_EDGE('',*,*,#122,.F.);
#183=ORIENTED_EDGE('',*,*,#125,.T.);
#184=ORIENTED_EDGE('',*,*,#127,.T.);
#185=ORIENTED_EDGE('',*,*,#128,.F.);
#186=ORIENTED_EDGE('',*,*,#130,.T.);
#187=ORIENTED_EDGE('',*,*,#132,.T.);
#188=ORIENTED_EDGE('',*,*,#134,.F.);
#189=CYLINDRICAL_SURFACE('',#218,12.);
#190=CYLINDRICAL_SURFACE('',#227,5.);
#191=CYLINDRICAL_SURFACE('',#231,17.5);
#192=CYLINDRICAL_SURFACE('',#234,17.5);
#193=ADVANCED_FACE('',(#22),#189,.F.);
#194=ADVANCED_FACE('',(#23),#15,.T.);
#195=ADVANCED_FACE('',(#24),#16,.T.);
#196=ADVANCED_FACE('',(#25),#17,.T.);
#197=ADVANCED_FACE('',(#26),#190,.F.);
#198=ADVANCED_FACE('',(#27),#18,.T.);
#199=ADVANCED_FACE('',(#28),#19,.T.);
#200=ADVANCED_FACE('',(#29),#191,.F.);
#201=ADVANCED_FACE('',(#30),#20,.T.);
#202=ADVANCED_FACE('',(#31),#192,.T.);
#203=ADVANCED_FACE('',(#32),#21,.F.);
#204=CLOSED_SHELL('',(#193,#194,#195,#196,#197,#198,#199,#200,#201,#202,
#203));
#205=DERIVED_UNIT_ELEMENT(#207,1.);
#206=DERIVED_UNIT_ELEMENT(#358,-3.);
#207=(
MASS_UNIT()
NAMED_UNIT(*)
SI_UNIT(.KILO.,.GRAM.)
);
#208=DERIVED_UNIT((#205,#206));
#209=MEASURE_REPRESENTATION_ITEM('density measure',
POSITIVE_RATIO_MEASURE(7850.),#208);
#210=PROPERTY_DEFINITION_REPRESENTATION(#215,#212);
#211=PROPERTY_DEFINITION_REPRESENTATION(#216,#213);
#212=REPRESENTATION('material name',(#214),#355);
#213=REPRESENTATION('density',(#209),#355);
#214=DESCRIPTIVE_REPRESENTATION_ITEM('Acier','Acier');
#215=PROPERTY_DEFINITION('material property','material name',#365);
#216=PROPERTY_DEFINITION('material property','density of part',#365);
#217=AXIS2_PLACEMENT_3D('',#296,#237,#238);
#218=AXIS2_PLACEMENT_3D('',#297,#239,#240);
#219=AXIS2_PLACEMENT_3D('',#300,#241,#242);
#220=AXIS2_PLACEMENT_3D('',#304,#244,#245);
#221=AXIS2_PLACEMENT_3D('',#306,#247,#248);
#222=AXIS2_PLACEMENT_3D('',#311,#251,#252);
#223=AXIS2_PLACEMENT_3D('',#312,#253,#254);
#224=AXIS2_PLACEMENT_3D('',#316,#256,#257);
#225=AXIS2_PLACEMENT_3D('',#320,#259,#260);
#226=AXIS2_PLACEMENT_3D('',#324,#263,#264);
#227=AXIS2_PLACEMENT_3D('',#330,#268,#269);
#228=AXIS2_PLACEMENT_3D('',#333,#271,#272);
#229=AXIS2_PLACEMENT_3D('',#334,#273,#274);
#230=AXIS2_PLACEMENT_3D('',#338,#277,#278);
#231=AXIS2_PLACEMENT_3D('',#342,#281,#282);
#232=AXIS2_PLACEMENT_3D('',#344,#283,#284);
#233=AXIS2_PLACEMENT_3D('',#346,#286,#287);
#234=AXIS2_PLACEMENT_3D('',#350,#290,#291);
#235=AXIS2_PLACEMENT_3D('',#351,#292,#293);
#236=AXIS2_PLACEMENT_3D('',#352,#294,#295);
#237=DIRECTION('axis',(0.,0.,1.));
#238=DIRECTION('refdir',(1.,0.,0.));
#239=DIRECTION('center_axis',(0.,0.,-1.));
#240=DIRECTION('ref_axis',(-1.,-1.22464679914735E-16,0.));
#241=DIRECTION('center_axis',(0.,0.,-1.));
#242=DIRECTION('ref_axis',(1.,0.,0.));
#243=DIRECTION('',(0.,0.,1.));
#244=DIRECTION('center_axis',(0.,0.,-1.));
#245=DIRECTION('ref_axis',(1.,0.,0.));
#246=DIRECTION('',(0.,0.,-1.));
#247=DIRECTION('center_axis',(0.,0.,1.));
#248=DIRECTION('ref_axis',(1.,0.,0.));
#249=DIRECTION('',(-1.,0.,0.));
#250=DIRECTION('',(1.,0.,0.));
#251=DIRECTION('center_axis',(0.,0.,1.));
#252=DIRECTION('ref_axis',(1.,0.,0.));
#253=DIRECTION('center_axis',(0.,0.,1.));
#254=DIRECTION('ref_axis',(1.,0.,0.));
#255=DIRECTION('',(1.,0.,0.));
#256=DIRECTION('center_axis',(0.,0.,1.));
#257=DIRECTION('ref_axis',(1.,0.,0.));
#258=DIRECTION('',(4.7751527940867E-17,-1.,0.));
#259=DIRECTION('center_axis',(0.,0.,-1.));
#260=DIRECTION('ref_axis',(1.,0.,0.));
#261=DIRECTION('',(4.7751527940867E-17,1.,0.));
#262=DIRECTION('',(-1.,0.,0.));
#263=DIRECTION('center_axis',(0.,-1.,0.));
#264=DIRECTION('ref_axis',(1.,0.,0.));
#265=DIRECTION('',(0.,0.,1.));
#266=DIRECTION('',(1.,0.,0.));
#267=DIRECTION('',(0.,0.,1.));
#268=DIRECTION('center_axis',(0.,0.,1.));
#269=DIRECTION('ref_axis',(-1.,1.22464679914735E-16,0.));
#270=DIRECTION('',(0.,0.,1.));
#271=DIRECTION('center_axis',(0.,0.,1.));
#272=DIRECTION('ref_axis',(1.,0.,0.));
#273=DIRECTION('center_axis',(0.,1.,0.));
#274=DIRECTION('ref_axis',(-1.,0.,0.));
#275=DIRECTION('',(0.,0.,1.));
#276=DIRECTION('',(1.,0.,0.));
#277=DIRECTION('center_axis',(1.,-4.7751527940867E-17,0.));
#278=DIRECTION('ref_axis',(4.7751527940867E-17,1.,0.));
#279=DIRECTION('',(4.7751527940867E-17,1.,0.));
#280=DIRECTION('',(0.,0.,1.));
#281=DIRECTION('center_axis',(0.,0.,1.));
#282=DIRECTION('ref_axis',(1.,0.,0.));
#283=DIRECTION('center_axis',(0.,0.,1.));
#284=DIRECTION('ref_axis',(1.,0.,0.));
#285=DIRECTION('',(0.,0.,1.));
#286=DIRECTION('center_axis',(-1.,-4.7751527940867E-17,0.));
#287=DIRECTION('ref_axis',(4.7751527940867E-17,-1.,0.));
#288=DIRECTION('',(-4.7751527940867E-17,1.,0.));
#289=DIRECTION('',(0.,0.,1.));
#290=DIRECTION('center_axis',(0.,0.,1.));
#291=DIRECTION('ref_axis',(1.,0.,0.));
#292=DIRECTION('center_axis',(0.,0.,1.));
#293=DIRECTION('ref_axis',(1.,0.,0.));
#294=DIRECTION('center_axis',(0.,0.,1.));
#295=DIRECTION('ref_axis',(1.,0.,0.));
#296=CARTESIAN_POINT('',(0.,0.,0.));
#297=CARTESIAN_POINT('Origin',(0.,0.,10.));
#298=CARTESIAN_POINT('',(10.9087121146357,-5.,10.));
#299=CARTESIAN_POINT('',(10.9087121146357,5.,10.));
#300=CARTESIAN_POINT('Origin',(0.,0.,10.));
#301=CARTESIAN_POINT('',(10.9087121146357,-5.,8.));
#302=CARTESIAN_POINT('',(10.9087121146357,-5.,10.));
#303=CARTESIAN_POINT('',(10.9087121146357,5.,8.));
#304=CARTESIAN_POINT('Origin',(0.,0.,8.));
#305=CARTESIAN_POINT('',(10.9087121146357,5.,10.));
#306=CARTESIAN_POINT('Origin',(-0.545643942682141,0.,8.));
#307=CARTESIAN_POINT('',(0.,5.,8.));
#308=CARTESIAN_POINT('',(-0.272821971341071,5.,8.));
#309=CARTESIAN_POINT('',(-6.12323399573677E-16,-5.,8.));
#310=CARTESIAN_POINT('',(8.47717802865893,-5.,8.));
#311=CARTESIAN_POINT('Origin',(0.,0.,8.));
#312=CARTESIAN_POINT('Origin',(0.,-14.5,10.));
#313=CARTESIAN_POINT('',(16.7705098312484,5.,10.));
#314=CARTESIAN_POINT('',(0.,5.,10.));
#315=CARTESIAN_POINT('',(-17.5,0.,10.));
#316=CARTESIAN_POINT('Origin',(0.,0.,10.));
#317=CARTESIAN_POINT('',(-17.5,-46.5,10.));
#318=CARTESIAN_POINT('',(-17.5,-46.5,10.));
#319=CARTESIAN_POINT('',(17.5,-46.5,10.));
#320=CARTESIAN_POINT('Origin',(0.,-46.5,10.));
#321=CARTESIAN_POINT('',(17.5,-5.,10.));
#322=CARTESIAN_POINT('',(17.5,-46.5,10.));
#323=CARTESIAN_POINT('',(0.,-5.,10.));
#324=CARTESIAN_POINT('Origin',(0.,5.,0.));
#325=CARTESIAN_POINT('',(0.,5.,0.));
#326=CARTESIAN_POINT('',(0.,5.,0.));
#327=CARTESIAN_POINT('',(16.7705098312484,5.,0.));
#328=CARTESIAN_POINT('',(0.,5.,0.));
#329=CARTESIAN_POINT('',(16.7705098312484,5.,0.));
#330=CARTESIAN_POINT('Origin',(0.,0.,0.));
#331=CARTESIAN_POINT('',(0.,-5.,0.));
#332=CARTESIAN_POINT('',(0.,-5.,0.));
#333=CARTESIAN_POINT('Origin',(0.,0.,0.));
#334=CARTESIAN_POINT('Origin',(17.5,-5.,0.));
#335=CARTESIAN_POINT('',(17.5,-5.,0.));
#336=CARTESIAN_POINT('',(17.5,-5.,0.));
#337=CARTESIAN_POINT('',(0.,-5.,0.));
#338=CARTESIAN_POINT('Origin',(17.5,-46.5,0.));
#339=CARTESIAN_POINT('',(17.5,-46.5,0.));
#340=CARTESIAN_POINT('',(17.5,-46.5,0.));
#341=CARTESIAN_POINT('',(17.5,-46.5,0.));
#342=CARTESIAN_POINT('Origin',(0.,-46.5,0.));
#343=CARTESIAN_POINT('',(-17.5,-46.5,0.));
#344=CARTESIAN_POINT('Origin',(0.,-46.5,0.));
#345=CARTESIAN_POINT('',(-17.5,-46.5,0.));
#346=CARTESIAN_POINT('Origin',(-17.5,0.,0.));
#347=CARTESIAN_POINT('',(-17.5,0.,0.));
#348=CARTESIAN_POINT('',(-17.5,-46.5,0.));
#349=CARTESIAN_POINT('',(-17.5,0.,0.));
#350=CARTESIAN_POINT('Origin',(0.,0.,0.));
#351=CARTESIAN_POINT('Origin',(0.,0.,0.));
#352=CARTESIAN_POINT('Origin',(0.,-14.5,0.));
#353=UNCERTAINTY_MEASURE_WITH_UNIT(LENGTH_MEASURE(0.01),#357,
'DISTANCE_ACCURACY_VALUE',
'Maximum model space distance between geometric entities at asserted c
onnectivities');
#354=UNCERTAINTY_MEASURE_WITH_UNIT(LENGTH_MEASURE(0.01),#357,
'DISTANCE_ACCURACY_VALUE',
'Maximum model space distance between geometric entities at asserted c
onnectivities');
#355=(
GEOMETRIC_REPRESENTATION_CONTEXT(3)
GLOBAL_UNCERTAINTY_ASSIGNED_CONTEXT((#353))
GLOBAL_UNIT_ASSIGNED_CONTEXT((#357,#359,#360))
REPRESENTATION_CONTEXT('','3D')
);
#356=(
GEOMETRIC_REPRESENTATION_CONTEXT(3)
GLOBAL_UNCERTAINTY_ASSIGNED_CONTEXT((#354))
GLOBAL_UNIT_ASSIGNED_CONTEXT((#357,#359,#360))
REPRESENTATION_CONTEXT('','3D')
);
#357=(
LENGTH_UNIT()
NAMED_UNIT(*)
SI_UNIT(.MILLI.,.METRE.)
);
#358=(
LENGTH_UNIT()
NAMED_UNIT(*)
SI_UNIT($,.METRE.)
);
#359=(
NAMED_UNIT(*)
PLANE_ANGLE_UNIT()
SI_UNIT($,.RADIAN.)
);
#360=(
NAMED_UNIT(*)
SI_UNIT($,.STERADIAN.)
SOLID_ANGLE_UNIT()
);
#361=SHAPE_DEFINITION_REPRESENTATION(#362,#363);
#362=PRODUCT_DEFINITION_SHAPE('',$,#365);
#363=SHAPE_REPRESENTATION('',(#217),#355);
#364=PRODUCT_DEFINITION_CONTEXT('part definition',#369,'design');
#365=PRODUCT_DEFINITION('BRIDE MOTEUR ARR BAS DROIT (v3~recovered)',
'BRIDE MOTEUR ARR BAS DROIT (v3~recovered)',#366,#364);
#366=PRODUCT_DEFINITION_FORMATION('',$,#371);
#367=PRODUCT_RELATED_PRODUCT_CATEGORY(
'BRIDE MOTEUR ARR BAS DROIT (v3~recovered)',
'BRIDE MOTEUR ARR BAS DROIT (v3~recovered)',(#371));
#368=APPLICATION_PROTOCOL_DEFINITION('international standard',
'automotive_design',2009,#369);
#369=APPLICATION_CONTEXT(
'Core Data for Automotive Mechanical Design Process');
#370=PRODUCT_CONTEXT('part definition',#369,'mechanical');
#371=PRODUCT('BRIDE MOTEUR ARR BAS DROIT (v3~recovered)',
'BRIDE MOTEUR ARR BAS DROIT (v3~recovered)',$,(#370));
#372=PRESENTATION_STYLE_ASSIGNMENT((#373));
#373=SURFACE_STYLE_USAGE(.BOTH.,#374);
#374=SURFACE_SIDE_STYLE('',(#375));
#375=SURFACE_STYLE_FILL_AREA(#376);
#376=FILL_AREA_STYLE('Acier - Satin\X\E9',(#377));
#377=FILL_AREA_STYLE_COLOUR('Acier - Satin\X\E9',#378);
#378=COLOUR_RGB('Acier - Satin\X\E9',0.627450980392157,0.627450980392157,
0.627450980392157);
ENDSEC;
END-ISO-10303-21;
