ISO-10303-21;
HEADER;
FILE_DESCRIPTION(('FreeCAD Model'),'2;1');
FILE_NAME('Open CASCADE Shape Model','2024-02-25T22:40:48',(''),(''),
  'Open CASCADE STEP processor 7.6','FreeCAD','Unknown');
FILE_SCHEMA(('AUTOMOTIVE_DESIGN { 1 0 10303 214 1 1 1 1 }'));
ENDSEC;
DATA;
#1 = APPLICATION_PROTOCOL_DEFINITION('international standard',
  'automotive_design',2000,#2);
#2 = APPLICATION_CONTEXT(
  'core data for automotive mechanical design processes');
#3 = SHAPE_DEFINITION_REPRESENTATION(#4,#10);
#4 = PRODUCT_DEFINITION_SHAPE('','',#5);
#5 = PRODUCT_DEFINITION('design','',#6,#9);
#6 = PRODUCT_DEFINITION_FORMATION('','',#7);
#7 = PRODUCT('Body','Body','',(#8));
#8 = PRODUCT_CONTEXT('',#2,'mechanical');
#9 = PRODUCT_DEFINITION_CONTEXT('part definition',#2,'design');
#10 = ADVANCED_BREP_SHAPE_REPRESENTATION('',(#11,#15),#420);
#11 = AXIS2_PLACEMENT_3D('',#12,#13,#14);
#12 = CARTESIAN_POINT('',(0.,0.,0.));
#13 = DIRECTION('',(0.,0.,1.));
#14 = DIRECTION('',(1.,0.,-0.));
#15 = MANIFOLD_SOLID_BREP('',#16);
#16 = CLOSED_SHELL('',(#17,#201,#226,#329,#354,#374,#408));
#17 = ADVANCED_FACE('',(#18),#196,.F.);
#18 = FACE_BOUND('',#19,.T.);
#19 = EDGE_LOOP('',(#20,#30,#37,#38,#110,#118,#125,#126));
#20 = ORIENTED_EDGE('',*,*,#21,.F.);
#21 = EDGE_CURVE('',#22,#24,#26,.T.);
#22 = VERTEX_POINT('',#23);
#23 = CARTESIAN_POINT('',(-15.,10.,-1.59872115546E-14));
#24 = VERTEX_POINT('',#25);
#25 = CARTESIAN_POINT('',(-7.4,10.,-5.810418978238E-15));
#26 = LINE('',#27,#28);
#27 = CARTESIAN_POINT('',(-16.,10.,-1.554312234475E-14));
#28 = VECTOR('',#29,1.);
#29 = DIRECTION('',(1.,-8.881784197001E-16,2.775557561563E-16));
#30 = ORIENTED_EDGE('',*,*,#31,.F.);
#31 = EDGE_CURVE('',#22,#22,#32,.T.);
#32 = CIRCLE('',#33,10.);
#33 = AXIS2_PLACEMENT_3D('',#34,#35,#36);
#34 = CARTESIAN_POINT('',(-15.,1.043609643148E-14,-7.105427357601E-15));
#35 = DIRECTION('',(1.,-2.22044604925E-16,8.881784197001E-16));
#36 = DIRECTION('',(2.22044604925E-16,1.,-8.881784197001E-16));
#37 = ORIENTED_EDGE('',*,*,#21,.T.);
#38 = ORIENTED_EDGE('',*,*,#39,.T.);
#39 = EDGE_CURVE('',#24,#40,#42,.T.);
#40 = VERTEX_POINT('',#41);
#41 = CARTESIAN_POINT('',(-0.6,10.,-9.18154441365E-15));
#42 = B_SPLINE_CURVE_WITH_KNOTS('',6,(#43,#44,#45,#46,#47,#48,#49,#50,
    #51,#52,#53,#54,#55,#56,#57,#58,#59,#60,#61,#62,#63,#64,#65,#66,#67,
    #68,#69,#70,#71,#72,#73,#74,#75,#76,#77,#78,#79,#80,#81,#82,#83,#84,
    #85,#86,#87,#88,#89,#90,#91,#92,#93,#94,#95,#96,#97,#98,#99,#100,
    #101,#102,#103,#104,#105,#106,#107,#108,#109),.UNSPECIFIED.,.F.,.F.,
  (7,5,5,5,5,5,5,5,5,5,5,5,5,7),(0.,8.389749459038E-02,0.204722844456,
    0.261446655907,0.309165135842,0.350498874291,0.384804575988,
    0.500060474608,0.648044103901,0.689086213035,0.738399606395,
    0.794306223597,0.864155690641,1.),.UNSPECIFIED.);
#43 = CARTESIAN_POINT('',(-7.4,10.,-7.020608352555E-15));
#44 = CARTESIAN_POINT('',(-7.4,10.,0.181308964491));
#45 = CARTESIAN_POINT('',(-7.38839775915,9.9960552589,0.362281780319));
#46 = CARTESIAN_POINT('',(-7.365274119085,9.98819312383,0.541278417879)
  );
#47 = CARTESIAN_POINT('',(-7.331111633148,9.976667407511,0.716677512474)
  );
#48 = CARTESIAN_POINT('',(-7.286788021994,9.961949853882,0.886937738023)
  );
#49 = CARTESIAN_POINT('',(-7.15698189161,9.919742237822,1.286439928532)
  );
#50 = CARTESIAN_POINT('',(-7.061999339339,9.88949103931,1.508568217817)
  );
#51 = CARTESIAN_POINT('',(-6.951462061463,9.855392820685,1.716125759533)
  );
#52 = CARTESIAN_POINT('',(-6.827921773008,9.818940317388,1.90858917764)
  );
#53 = CARTESIAN_POINT('',(-6.693737507831,9.781476161458,2.085742638753)
  );
#54 = CARTESIAN_POINT('',(-6.484163803901,9.726607533279,2.323615413906)
  );
#55 = CARTESIAN_POINT('',(-6.415261578689,9.709082506352,2.396344643747)
  );
#56 = CARTESIAN_POINT('',(-6.344581612495,9.69166642512,2.465850710233)
  );
#57 = CARTESIAN_POINT('',(-6.272275502697,9.674454351646,2.532178370026)
  );
#58 = CARTESIAN_POINT('',(-6.198477045266,9.657531992044,2.595373392301)
  );
#59 = CARTESIAN_POINT('',(-6.060061990601,9.627047837312,2.706048943126)
  );
#60 = CARTESIAN_POINT('',(-5.995849114517,9.61337943222,2.754430412292)
  );
#61 = CARTESIAN_POINT('',(-5.930733503512,9.600016223815,2.800653643943)
  );
#62 = CARTESIAN_POINT('',(-5.864779971007,9.587000442364,2.844743290848)
  );
#63 = CARTESIAN_POINT('',(-5.798048246848,9.574370805795,2.886721980854)
  );
#64 = CARTESIAN_POINT('',(-5.672163235373,9.55158770455,2.961161586137)
  );
#65 = CARTESIAN_POINT('',(-5.613191062844,9.541329127565,2.994144322784)
  );
#66 = CARTESIAN_POINT('',(-5.553712269701,9.531409760907,3.025571756398)
  );
#67 = CARTESIAN_POINT('',(-5.493761070091,9.521850885228,3.055455820544)
  );
#68 = CARTESIAN_POINT('',(-5.433370082334,9.512672089675,3.083807152782)
  );
#69 = CARTESIAN_POINT('',(-5.322108447604,9.496603469548,3.132901441868)
  );
#70 = CARTESIAN_POINT('',(-5.271365115765,9.48958983021,3.154118402285)
  );
#71 = CARTESIAN_POINT('',(-5.220358161796,9.482860606538,3.174291305714)
  );
#72 = CARTESIAN_POINT('',(-5.169104991832,9.476425286136,3.193424936885)
  );
#73 = CARTESIAN_POINT('',(-5.117622589749,9.47029259155,3.211523535457)
  );
#74 = CARTESIAN_POINT('',(-4.89224903953,9.444910097165,3.285931190065)
  );
#75 = CARTESIAN_POINT('',(-4.7161429359,9.428852335685,3.331639636121));
#76 = CARTESIAN_POINT('',(-4.538274701227,9.416605093218,3.365838232559)
  );
#77 = CARTESIAN_POINT('',(-4.35924827108,9.408371914256,3.388611096915)
  );
#78 = CARTESIAN_POINT('',(-4.179634560023,9.404254356407,3.4));
#79 = CARTESIAN_POINT('',(-3.769356931342,9.404254356407,3.4));
#80 = CARTESIAN_POINT('',(-3.538785253352,9.411042492889,3.381224890847)
  );
#81 = CARTESIAN_POINT('',(-3.309455266104,9.424609868536,3.343696426124)
  );
#82 = CARTESIAN_POINT('',(-3.082551024979,9.444684483948,3.287293590148)
  );
#83 = CARTESIAN_POINT('',(-2.859376927429,9.470718335361,3.211773138054)
  );
#84 = CARTESIAN_POINT('',(-2.581027926549,9.510515435852,3.090447338645)
  );
#85 = CARTESIAN_POINT('',(-2.520989669829,9.519551292352,3.062604572087)
  );
#86 = CARTESIAN_POINT('',(-2.461379761788,9.528964752031,3.033252838002)
  );
#87 = CARTESIAN_POINT('',(-2.402229946512,9.538736848354,3.002381882487)
  );
#88 = CARTESIAN_POINT('',(-2.343573479977,9.548846978093,2.969980195939)
  );
#89 = CARTESIAN_POINT('',(-2.215602077481,9.571799978142,2.895248801256)
  );
#90 = CARTESIAN_POINT('',(-2.146522127167,9.584782812701,2.852234478815)
  );
#91 = CARTESIAN_POINT('',(-2.078265013166,9.598182999737,2.806969619957)
  );
#92 = CARTESIAN_POINT('',(-2.010896190008,9.611958150818,2.759429469713)
  );
#93 = CARTESIAN_POINT('',(-1.94448683269,9.626061894345,2.709586943933)
  );
#94 = CARTESIAN_POINT('',(-1.805000440418,9.656748734407,2.59826258426)
  );
#95 = CARTESIAN_POINT('',(-1.732220964372,9.67341066923,2.536116993458)
  );
#96 = CARTESIAN_POINT('',(-1.660886279923,9.690356719221,2.470931241728)
  );
#97 = CARTESIAN_POINT('',(-1.59112393074,9.707505138749,2.40266154814));
#98 = CARTESIAN_POINT('',(-1.523078132784,9.724765397358,2.331264965973)
  );
#99 = CARTESIAN_POINT('',(-1.374239335523,9.763618713628,2.163537490433)
  );
#100 = CARTESIAN_POINT('',(-1.294477585742,9.785224362485,2.065404301979
    ));
#101 = CARTESIAN_POINT('',(-1.217972336641,9.806653346901,1.962246767238
    ));
#102 = CARTESIAN_POINT('',(-1.145110434162,9.827679191932,1.854032763913
    ));
#103 = CARTESIAN_POINT('',(-1.076318757016,9.848053718434,1.740752465954
    ));
#104 = CARTESIAN_POINT('',(-0.887103946624,9.905348974462,1.392284366364
    ));
#105 = CARTESIAN_POINT('',(-0.77793732429,9.94012952679,1.140515709781)
  );
#106 = CARTESIAN_POINT('',(-0.690953785757,9.969074070097,0.870537850954
    ));
#107 = CARTESIAN_POINT('',(-0.630691645696,9.989565296956,0.586907903101
    ));
#108 = CARTESIAN_POINT('',(-0.6,10.,0.294887846786));
#109 = CARTESIAN_POINT('',(-0.6,10.,-4.847231088162E-15));
#110 = ORIENTED_EDGE('',*,*,#111,.T.);
#111 = EDGE_CURVE('',#40,#112,#114,.T.);
#112 = VERTEX_POINT('',#113);
#113 = CARTESIAN_POINT('',(15.,10.,-1.7763568394E-15));
#114 = LINE('',#115,#116);
#115 = CARTESIAN_POINT('',(-16.,10.,-1.554312234475E-14));
#116 = VECTOR('',#117,1.);
#117 = DIRECTION('',(1.,-8.881784197001E-16,2.775557561563E-16));
#118 = ORIENTED_EDGE('',*,*,#119,.T.);
#119 = EDGE_CURVE('',#112,#112,#120,.T.);
#120 = CIRCLE('',#121,10.);
#121 = AXIS2_PLACEMENT_3D('',#122,#123,#124);
#122 = CARTESIAN_POINT('',(15.,3.774758283726E-15,1.95399252334E-14));
#123 = DIRECTION('',(1.,-2.22044604925E-16,8.881784197001E-16));
#124 = DIRECTION('',(2.22044604925E-16,1.,-2.13162820728E-15));
#125 = ORIENTED_EDGE('',*,*,#111,.F.);
#126 = ORIENTED_EDGE('',*,*,#127,.T.);
#127 = EDGE_CURVE('',#40,#24,#128,.T.);
#128 = B_SPLINE_CURVE_WITH_KNOTS('',6,(#129,#130,#131,#132,#133,#134,
    #135,#136,#137,#138,#139,#140,#141,#142,#143,#144,#145,#146,#147,
    #148,#149,#150,#151,#152,#153,#154,#155,#156,#157,#158,#159,#160,
    #161,#162,#163,#164,#165,#166,#167,#168,#169,#170,#171,#172,#173,
    #174,#175,#176,#177,#178,#179,#180,#181,#182,#183,#184,#185,#186,
    #187,#188,#189,#190,#191,#192,#193,#194,#195),.UNSPECIFIED.,.F.,.F.,
  (7,5,5,5,5,5,5,5,5,5,5,5,5,7),(0.,8.38975647641E-02,0.204722898214,
    0.261446702,0.309165175485,0.350498908348,0.384804605408,
    0.500060488452,0.648044097745,0.689086201332,0.738399588027,
    0.794306197674,0.864155666015,1.),.UNSPECIFIED.);
#129 = CARTESIAN_POINT('',(-0.6,10.,-6.061817714453E-15));
#130 = CARTESIAN_POINT('',(-0.6,10.,-0.181308797866));
#131 = CARTESIAN_POINT('',(-0.611602219672,9.996055266235,
    -0.362281823509));
#132 = CARTESIAN_POINT('',(-0.634725906753,9.98819311451,-0.54127858167)
  );
#133 = CARTESIAN_POINT('',(-0.668888402373,9.976667396428,
    -0.716677556348));
#134 = CARTESIAN_POINT('',(-0.713211926248,9.961949870712,
    -0.886937578728));
#135 = CARTESIAN_POINT('',(-0.843018108443,9.919742237804,
    -1.286439928694));
#136 = CARTESIAN_POINT('',(-0.938000660682,9.889491039304,
    -1.508568217784));
#137 = CARTESIAN_POINT('',(-1.048537938462,9.855392820711,
    -1.716125759399));
#138 = CARTESIAN_POINT('',(-1.172078226933,9.8189403174,-1.908589177608)
  );
#139 = CARTESIAN_POINT('',(-1.30626249227,9.781476161432,-2.085742638868
    ));
#140 = CARTESIAN_POINT('',(-1.515836196099,9.726607533279,
    -2.323615413906));
#141 = CARTESIAN_POINT('',(-1.584738421311,9.709082506352,
    -2.396344643747));
#142 = CARTESIAN_POINT('',(-1.655418387505,9.69166642512,-2.465850710233
    ));
#143 = CARTESIAN_POINT('',(-1.727724497303,9.674454351646,
    -2.532178370026));
#144 = CARTESIAN_POINT('',(-1.801522954734,9.657531992044,
    -2.595373392301));
#145 = CARTESIAN_POINT('',(-1.939938009399,9.627047837312,
    -2.706048943126));
#146 = CARTESIAN_POINT('',(-2.004150885483,9.61337943222,-2.754430412292
    ));
#147 = CARTESIAN_POINT('',(-2.069266496488,9.600016223815,
    -2.800653643943));
#148 = CARTESIAN_POINT('',(-2.135220028993,9.587000442364,
    -2.844743290848));
#149 = CARTESIAN_POINT('',(-2.201951753152,9.574370805795,
    -2.886721980854));
#150 = CARTESIAN_POINT('',(-2.327836764627,9.55158770455,-2.961161586137
    ));
#151 = CARTESIAN_POINT('',(-2.386808937156,9.541329127565,
    -2.994144322784));
#152 = CARTESIAN_POINT('',(-2.446287730299,9.531409760907,
    -3.025571756398));
#153 = CARTESIAN_POINT('',(-2.506238929909,9.521850885228,
    -3.055455820544));
#154 = CARTESIAN_POINT('',(-2.566629917666,9.512672089675,
    -3.083807152782));
#155 = CARTESIAN_POINT('',(-2.677891552396,9.496603469548,
    -3.132901441868));
#156 = CARTESIAN_POINT('',(-2.728634884235,9.48958983021,-3.154118402285
    ));
#157 = CARTESIAN_POINT('',(-2.779641838204,9.482860606538,
    -3.174291305714));
#158 = CARTESIAN_POINT('',(-2.830895008168,9.476425286136,
    -3.193424936885));
#159 = CARTESIAN_POINT('',(-2.882377410251,9.47029259155,-3.211523535457
    ));
#160 = CARTESIAN_POINT('',(-3.10775096047,9.444910097165,-3.285931190065
    ));
#161 = CARTESIAN_POINT('',(-3.2838570641,9.428852335685,-3.331639636121)
  );
#162 = CARTESIAN_POINT('',(-3.461725298773,9.416605093218,
    -3.365838232559));
#163 = CARTESIAN_POINT('',(-3.64075172892,9.408371914256,-3.388611096915
    ));
#164 = CARTESIAN_POINT('',(-3.820365439977,9.404254356407,-3.4));
#165 = CARTESIAN_POINT('',(-4.230643068658,9.404254356407,-3.4));
#166 = CARTESIAN_POINT('',(-4.461214746648,9.411042492889,
    -3.381224890847));
#167 = CARTESIAN_POINT('',(-4.690544733896,9.424609868536,
    -3.343696426124));
#168 = CARTESIAN_POINT('',(-4.917448975021,9.444684483948,
    -3.287293590148));
#169 = CARTESIAN_POINT('',(-5.140623072571,9.470718335361,
    -3.211773138054));
#170 = CARTESIAN_POINT('',(-5.418972073451,9.510515435852,
    -3.090447338645));
#171 = CARTESIAN_POINT('',(-5.479010330171,9.519551292352,
    -3.062604572087));
#172 = CARTESIAN_POINT('',(-5.538620238212,9.528964752031,
    -3.033252838002));
#173 = CARTESIAN_POINT('',(-5.597770053488,9.538736848354,
    -3.002381882487));
#174 = CARTESIAN_POINT('',(-5.656426520023,9.548846978093,
    -2.969980195939));
#175 = CARTESIAN_POINT('',(-5.784397922519,9.571799978142,
    -2.895248801256));
#176 = CARTESIAN_POINT('',(-5.853477872833,9.584782812701,
    -2.852234478815));
#177 = CARTESIAN_POINT('',(-5.921734986834,9.598182999737,
    -2.806969619957));
#178 = CARTESIAN_POINT('',(-5.989103809993,9.611958150818,
    -2.759429469713));
#179 = CARTESIAN_POINT('',(-6.05551316731,9.626061894345,-2.709586943933
    ));
#180 = CARTESIAN_POINT('',(-6.194999559582,9.656748734407,-2.59826258426
    ));
#181 = CARTESIAN_POINT('',(-6.267779035628,9.67341066923,-2.536116993458
    ));
#182 = CARTESIAN_POINT('',(-6.339113720077,9.690356719221,
    -2.470931241728));
#183 = CARTESIAN_POINT('',(-6.40887606926,9.707505138749,-2.40266154814)
  );
#184 = CARTESIAN_POINT('',(-6.476921867216,9.724765397358,
    -2.331264965973));
#185 = CARTESIAN_POINT('',(-6.625760677184,9.763618716945,
    -2.163537476114));
#186 = CARTESIAN_POINT('',(-6.70552240905,9.785224361284,-2.065404305002
    ));
#187 = CARTESIAN_POINT('',(-6.782027651422,9.806653343555,
    -1.962246784452));
#188 = CARTESIAN_POINT('',(-6.854889564396,9.827679191266,
    -1.854032770413));
#189 = CARTESIAN_POINT('',(-6.923681253439,9.8480537216,-1.740752446698)
  );
#190 = CARTESIAN_POINT('',(-7.112896053376,9.905348974462,
    -1.392284366364));
#191 = CARTESIAN_POINT('',(-7.22206267571,9.94012952679,-1.14051570978)
  );
#192 = CARTESIAN_POINT('',(-7.309046214243,9.969074070097,
    -0.870537850955));
#193 = CARTESIAN_POINT('',(-7.369308354304,9.989565296956,
    -0.586907903101));
#194 = CARTESIAN_POINT('',(-7.4,10.,-0.294887846786));
#195 = CARTESIAN_POINT('',(-7.4,10.,-8.149037000749E-15));
#196 = CYLINDRICAL_SURFACE('',#197,10.);
#197 = AXIS2_PLACEMENT_3D('',#198,#199,#200);
#198 = CARTESIAN_POINT('',(-16.,1.42108547152E-14,-4.440892098501E-15));
#199 = DIRECTION('',(-1.,6.661338147751E-16,-4.440892098501E-16));
#200 = DIRECTION('',(5.423418723394E-31,1.,-1.110223024625E-15));
#201 = ADVANCED_FACE('',(#202),#221,.F.);
#202 = FACE_BOUND('',#203,.T.);
#203 = EDGE_LOOP('',(#204,#212,#213,#214));
#204 = ORIENTED_EDGE('',*,*,#205,.F.);
#205 = EDGE_CURVE('',#22,#206,#208,.T.);
#206 = VERTEX_POINT('',#207);
#207 = CARTESIAN_POINT('',(-16.,11.,-1.7763568394E-14));
#208 = LINE('',#209,#210);
#209 = CARTESIAN_POINT('',(-15.,10.,-1.59872115546E-14));
#210 = VECTOR('',#211,1.);
#211 = DIRECTION('',(-0.707106781187,0.707106781187,-1.256073966947E-15)
  );
#212 = ORIENTED_EDGE('',*,*,#31,.T.);
#213 = ORIENTED_EDGE('',*,*,#205,.T.);
#214 = ORIENTED_EDGE('',*,*,#215,.F.);
#215 = EDGE_CURVE('',#206,#206,#216,.T.);
#216 = CIRCLE('',#217,11.);
#217 = AXIS2_PLACEMENT_3D('',#218,#219,#220);
#218 = CARTESIAN_POINT('',(-16.,1.06581410364E-14,-7.993605777301E-15));
#219 = DIRECTION('',(1.,-2.22044604925E-16,8.881784197001E-16));
#220 = DIRECTION('',(2.22044604925E-16,1.,-8.881784197001E-16));
#221 = CONICAL_SURFACE('',#222,10.,0.785398163397);
#222 = AXIS2_PLACEMENT_3D('',#223,#224,#225);
#223 = CARTESIAN_POINT('',(-15.,1.043609643148E-14,-7.105427357601E-15)
  );
#224 = DIRECTION('',(-1.,2.22044604925E-16,-8.881784197001E-16));
#225 = DIRECTION('',(2.22044604925E-16,1.,-8.881784197001E-16));
#226 = ADVANCED_FACE('',(#227),#324,.F.);
#227 = FACE_BOUND('',#228,.T.);
#228 = EDGE_LOOP('',(#229,#274,#280,#281,#282,#283));
#229 = ORIENTED_EDGE('',*,*,#230,.T.);
#230 = EDGE_CURVE('',#231,#233,#235,.T.);
#231 = VERTEX_POINT('',#232);
#232 = CARTESIAN_POINT('',(-0.6,15.,6.609597390791E-14));
#233 = VERTEX_POINT('',#234);
#234 = CARTESIAN_POINT('',(-7.4,15.,-1.817568649036E-15));
#235 = B_SPLINE_CURVE_WITH_KNOTS('',7,(#236,#237,#238,#239,#240,#241,
    #242,#243,#244,#245,#246,#247,#248,#249,#250,#251,#252,#253,#254,
    #255,#256,#257,#258,#259,#260,#261,#262,#263,#264,#265,#266,#267,
    #268,#269,#270,#271,#272,#273),.UNSPECIFIED.,.F.,.F.,(8,6,6,6,6,6,8)
  ,(0.,0.152517600491,0.34948126586,0.499947528913,0.706650310859,
    0.9071211796,1.),.UNSPECIFIED.);
#236 = CARTESIAN_POINT('',(-0.6,15.,-1.016964290557E-14));
#237 = CARTESIAN_POINT('',(-0.6,15.,-0.283173233177));
#238 = CARTESIAN_POINT('',(-0.627515105117,14.993763179164,
    -0.563667036703));
#239 = CARTESIAN_POINT('',(-0.681608515899,14.981502342065,
    -0.83726869992));
#240 = CARTESIAN_POINT('',(-0.760301635491,14.963965967833,
    -1.099960269754));
#241 = CARTESIAN_POINT('',(-0.860619712587,14.942378532248,
    -1.34814134725));
#242 = CARTESIAN_POINT('',(-0.978595468857,14.918192079875,
    -1.578836082333));
#243 = CARTESIAN_POINT('',(-1.278006246234,14.860075642326,
    -2.062401091273));
#244 = CARTESIAN_POINT('',(-1.470096940131,14.824936776772,
    -2.305665770278));
#245 = CARTESIAN_POINT('',(-1.679947266589,14.789587232539,
    -2.520108399108));
#246 = CARTESIAN_POINT('',(-1.903356499546,14.755745678363,
    -2.706714485908));
#247 = CARTESIAN_POINT('',(-2.137129852662,14.724647893124,
    -2.866617202323));
#248 = CARTESIAN_POINT('',(-2.378839776914,14.697186102148,
    -3.000872030515));
#249 = CARTESIAN_POINT('',(-2.815992204746,14.656273229508,
    -3.193893708966));
#250 = CARTESIAN_POINT('',(-3.00891333599,14.641042608792,
    -3.263010830825));
#251 = CARTESIAN_POINT('',(-3.204543126753,14.628590978985,
    -3.317971939666));
#252 = CARTESIAN_POINT('',(-3.402120555819,14.619121793509,
    -3.359024752206));
#253 = CARTESIAN_POINT('',(-3.600971889817,14.612765142011,
    -3.386339003634));
#254 = CARTESIAN_POINT('',(-3.800470923267,14.6095858942,-3.4));
#255 = CARTESIAN_POINT('',(-4.274102741724,14.6095858942,-3.4));
#256 = CARTESIAN_POINT('',(-4.548049218822,14.615585768384,
    -3.37421960131));
#257 = CARTESIAN_POINT('',(-4.820324016011,14.627572790769,
    -3.322709692157));
#258 = CARTESIAN_POINT('',(-5.089337294921,14.645320676348,
    -3.245153522001));
#259 = CARTESIAN_POINT('',(-5.353273811212,14.668373198476,
    -3.140916745433));
#260 = CARTESIAN_POINT('',(-5.609876094388,14.695986117225,
    -3.009104401371));
#261 = CARTESIAN_POINT('',(-6.095022181829,14.757132851364,
    -2.692983576501));
#262 = CARTESIAN_POINT('',(-6.325163283379,14.790587158134,
    -2.509736233619));
#263 = CARTESIAN_POINT('',(-6.543189289175,14.826340876324,
    -2.297828617863));
#264 = CARTESIAN_POINT('',(-6.744975644723,14.862904289553,
    -2.056429023902));
#265 = CARTESIAN_POINT('',(-6.925571019013,14.898306611295,
    -1.785088408529));
#266 = CARTESIAN_POINT('',(-7.0790090196,14.930063669649,-1.484022274396
    ));
#267 = CARTESIAN_POINT('',(-7.253025128518,14.967273489433,
    -1.00207165606));
#268 = CARTESIAN_POINT('',(-7.300640443751,14.977680997373,
    -0.843603925266));
#269 = CARTESIAN_POINT('',(-7.339788394811,14.986392881668,
    -0.68023120204));
#270 = CARTESIAN_POINT('',(-7.369711897548,14.99313462061,
    -0.513023638918));
#271 = CARTESIAN_POINT('',(-7.389882147017,14.997706652178,
    -0.343123285637));
#272 = CARTESIAN_POINT('',(-7.4,15.,-0.171715509802));
#273 = CARTESIAN_POINT('',(-7.4,15.,-1.225686219186E-14));
#274 = ORIENTED_EDGE('',*,*,#275,.T.);
#275 = EDGE_CURVE('',#233,#24,#276,.T.);
#276 = LINE('',#277,#278);
#277 = CARTESIAN_POINT('',(-7.4,15.,-1.7763568394E-15));
#278 = VECTOR('',#279,1.);
#279 = DIRECTION('',(8.074349270001E-17,-1.,5.551115123126E-16));
#280 = ORIENTED_EDGE('',*,*,#127,.F.);
#281 = ORIENTED_EDGE('',*,*,#39,.F.);
#282 = ORIENTED_EDGE('',*,*,#275,.F.);
#283 = ORIENTED_EDGE('',*,*,#284,.T.);
#284 = EDGE_CURVE('',#233,#231,#285,.T.);
#285 = B_SPLINE_CURVE_WITH_KNOTS('',7,(#286,#287,#288,#289,#290,#291,
    #292,#293,#294,#295,#296,#297,#298,#299,#300,#301,#302,#303,#304,
    #305,#306,#307,#308,#309,#310,#311,#312,#313,#314,#315,#316,#317,
    #318,#319,#320,#321,#322,#323),.UNSPECIFIED.,.F.,.F.,(8,6,6,6,6,6,8)
  ,(0.,0.152516957667,0.349480769129,0.499947157865,0.706650093206,
    0.907121110694,1.),.UNSPECIFIED.);
#286 = CARTESIAN_POINT('',(-7.4,15.,-1.062883318259E-14));
#287 = CARTESIAN_POINT('',(-7.4,15.,0.283174451216));
#288 = CARTESIAN_POINT('',(-7.372484658615,14.993763125354,
    0.563667196782));
#289 = CARTESIAN_POINT('',(-7.318391572259,14.98150236314,0.837267754922
    ));
#290 = CARTESIAN_POINT('',(-7.239698813924,14.963966072365,
    1.099959345246));
#291 = CARTESIAN_POINT('',(-7.139380451524,14.942378551029,
    1.348141481334));
#292 = CARTESIAN_POINT('',(-7.021403883499,14.918191954165,
    1.578837128314));
#293 = CARTESIAN_POINT('',(-6.721993753766,14.860075642326,
    2.062401091273));
#294 = CARTESIAN_POINT('',(-6.529903059869,14.824936776772,
    2.305665770279));
#295 = CARTESIAN_POINT('',(-6.320052733412,14.789587232539,
    2.520108399107));
#296 = CARTESIAN_POINT('',(-6.096643500454,14.755745678363,
    2.706714485908));
#297 = CARTESIAN_POINT('',(-5.862870147338,14.724647893124,
    2.866617202323));
#298 = CARTESIAN_POINT('',(-5.621160223086,14.697186102148,
    3.000872030516));
#299 = CARTESIAN_POINT('',(-5.184007777541,14.656273227851,
    3.193893716787));
#300 = CARTESIAN_POINT('',(-4.991086681367,14.641042611006,
    3.263010820423));
#301 = CARTESIAN_POINT('',(-4.795456888222,14.628590978994,
    3.317971939673));
#302 = CARTESIAN_POINT('',(-4.597879430078,14.619121792182,
    3.359024758446));
#303 = CARTESIAN_POINT('',(-4.399028091177,14.612765142552,
    3.386339001013));
#304 = CARTESIAN_POINT('',(-4.199529095325,14.6095858942,3.4));
#305 = CARTESIAN_POINT('',(-3.725897258276,14.6095858942,3.4));
#306 = CARTESIAN_POINT('',(-3.451950781178,14.615585768384,3.37421960131
    ));
#307 = CARTESIAN_POINT('',(-3.179675983989,14.627572790769,
    3.322709692157));
#308 = CARTESIAN_POINT('',(-2.910662705078,14.645320676348,
    3.245153522001));
#309 = CARTESIAN_POINT('',(-2.646726188788,14.668373198476,
    3.140916745433));
#310 = CARTESIAN_POINT('',(-2.390123905612,14.695986117225,
    3.009104401371));
#311 = CARTESIAN_POINT('',(-1.9049778182,14.75713285136,2.69298357652));
#312 = CARTESIAN_POINT('',(-1.674836716617,14.790587158133,
    2.509736233624));
#313 = CARTESIAN_POINT('',(-1.456810710802,14.826340876327,
    2.297828617844));
#314 = CARTESIAN_POINT('',(-1.255024355265,14.862904289556,
    2.056429023877));
#315 = CARTESIAN_POINT('',(-1.074428980997,14.898306611293,
    1.785088408532));
#316 = CARTESIAN_POINT('',(-0.920990980411,14.930063669646,
    1.484022274428));
#317 = CARTESIAN_POINT('',(-0.746974871482,14.967273489433,1.00207165606
    ));
#318 = CARTESIAN_POINT('',(-0.699359556249,14.977680997373,
    0.843603925266));
#319 = CARTESIAN_POINT('',(-0.660211605189,14.986392881668,0.68023120204
    ));
#320 = CARTESIAN_POINT('',(-0.630288102452,14.99313462061,0.513023638918
    ));
#321 = CARTESIAN_POINT('',(-0.610117852983,14.997706652178,
    0.343123285637));
#322 = CARTESIAN_POINT('',(-0.6,15.,0.171715509802));
#323 = CARTESIAN_POINT('',(-0.6,15.,-8.455455918194E-15));
#324 = CYLINDRICAL_SURFACE('',#325,3.4);
#325 = AXIS2_PLACEMENT_3D('',#326,#327,#328);
#326 = CARTESIAN_POINT('',(-4.,15.,-1.7763568394E-15));
#327 = DIRECTION('',(-9.860761315263E-32,-1.,5.551115123126E-16));
#328 = DIRECTION('',(-1.,3.697785493223E-32,-1.110223024625E-16));
#329 = ADVANCED_FACE('',(#330),#349,.F.);
#330 = FACE_BOUND('',#331,.T.);
#331 = EDGE_LOOP('',(#332,#340,#347,#348));
#332 = ORIENTED_EDGE('',*,*,#333,.F.);
#333 = EDGE_CURVE('',#334,#112,#336,.T.);
#334 = VERTEX_POINT('',#335);
#335 = CARTESIAN_POINT('',(16.,11.,-3.01980662698E-15));
#336 = LINE('',#337,#338);
#337 = CARTESIAN_POINT('',(15.,10.,-1.7763568394E-15));
#338 = VECTOR('',#339,1.);
#339 = DIRECTION('',(-0.707106781187,-0.707106781187,8.792517768629E-16)
  );
#340 = ORIENTED_EDGE('',*,*,#341,.T.);
#341 = EDGE_CURVE('',#334,#334,#342,.T.);
#342 = CIRCLE('',#343,11.);
#343 = AXIS2_PLACEMENT_3D('',#344,#345,#346);
#344 = CARTESIAN_POINT('',(16.,3.552713678801E-15,2.04281036531E-14));
#345 = DIRECTION('',(1.,-2.22044604925E-16,8.881784197001E-16));
#346 = DIRECTION('',(2.22044604925E-16,1.,-2.13162820728E-15));
#347 = ORIENTED_EDGE('',*,*,#333,.T.);
#348 = ORIENTED_EDGE('',*,*,#119,.F.);
#349 = CONICAL_SURFACE('',#350,10.,0.785398163397);
#350 = AXIS2_PLACEMENT_3D('',#351,#352,#353);
#351 = CARTESIAN_POINT('',(15.,3.774758283726E-15,1.95399252334E-14));
#352 = DIRECTION('',(1.,-2.22044604925E-16,8.881784197001E-16));
#353 = DIRECTION('',(2.22044604925E-16,1.,-2.13162820728E-15));
#354 = ADVANCED_FACE('',(#355,#358),#369,.F.);
#355 = FACE_BOUND('',#356,.F.);
#356 = EDGE_LOOP('',(#357));
#357 = ORIENTED_EDGE('',*,*,#215,.F.);
#358 = FACE_BOUND('',#359,.F.);
#359 = EDGE_LOOP('',(#360));
#360 = ORIENTED_EDGE('',*,*,#361,.T.);
#361 = EDGE_CURVE('',#362,#362,#364,.T.);
#362 = VERTEX_POINT('',#363);
#363 = CARTESIAN_POINT('',(-16.,15.,-2.13162820728E-14));
#364 = CIRCLE('',#365,15.);
#365 = AXIS2_PLACEMENT_3D('',#366,#367,#368);
#366 = CARTESIAN_POINT('',(-16.,1.06581410364E-14,1.42108547152E-14));
#367 = DIRECTION('',(1.,2.22044604925E-16,1.33226762955E-15));
#368 = DIRECTION('',(-2.22044604925E-16,1.,-1.33226762955E-15));
#369 = PLANE('',#370);
#370 = AXIS2_PLACEMENT_3D('',#371,#372,#373);
#371 = CARTESIAN_POINT('',(-16.,9.782979351576E-15,1.42108547152E-14));
#372 = DIRECTION('',(1.,-1.110223024625E-15,8.258387601532E-31));
#373 = DIRECTION('',(-1.33226762955E-15,-2.22044604925E-16,1.));
#374 = ADVANCED_FACE('',(#375),#403,.T.);
#375 = FACE_BOUND('',#376,.F.);
#376 = EDGE_LOOP('',(#377,#378,#384,#385,#393,#400,#401,#402));
#377 = ORIENTED_EDGE('',*,*,#361,.F.);
#378 = ORIENTED_EDGE('',*,*,#379,.T.);
#379 = EDGE_CURVE('',#362,#233,#380,.T.);
#380 = LINE('',#381,#382);
#381 = CARTESIAN_POINT('',(-16.,15.,-2.109423746788E-14));
#382 = VECTOR('',#383,1.);
#383 = DIRECTION('',(1.,-8.881784197001E-16,2.775557561563E-16));
#384 = ORIENTED_EDGE('',*,*,#284,.T.);
#385 = ORIENTED_EDGE('',*,*,#386,.T.);
#386 = EDGE_CURVE('',#231,#387,#389,.T.);
#387 = VERTEX_POINT('',#388);
#388 = CARTESIAN_POINT('',(16.,15.,-5.329070518201E-15));
#389 = LINE('',#390,#391);
#390 = CARTESIAN_POINT('',(-16.,15.,-2.109423746788E-14));
#391 = VECTOR('',#392,1.);
#392 = DIRECTION('',(1.,-8.881784197001E-16,2.775557561563E-16));
#393 = ORIENTED_EDGE('',*,*,#394,.T.);
#394 = EDGE_CURVE('',#387,#387,#395,.T.);
#395 = CIRCLE('',#396,15.);
#396 = AXIS2_PLACEMENT_3D('',#397,#398,#399);
#397 = CARTESIAN_POINT('',(16.,-1.06581410364E-14,-1.42108547152E-14));
#398 = DIRECTION('',(1.,2.22044604925E-16,1.33226762955E-15));
#399 = DIRECTION('',(-2.22044604925E-16,1.,-1.33226762955E-15));
#400 = ORIENTED_EDGE('',*,*,#386,.F.);
#401 = ORIENTED_EDGE('',*,*,#230,.T.);
#402 = ORIENTED_EDGE('',*,*,#379,.F.);
#403 = CYLINDRICAL_SURFACE('',#404,15.);
#404 = AXIS2_PLACEMENT_3D('',#405,#406,#407);
#405 = CARTESIAN_POINT('',(-16.,1.42108547152E-14,-4.440892098501E-15));
#406 = DIRECTION('',(-1.,6.661338147751E-16,-4.440892098501E-16));
#407 = DIRECTION('',(5.423418723394E-31,1.,-1.110223024625E-15));
#408 = ADVANCED_FACE('',(#409,#412),#415,.T.);
#409 = FACE_BOUND('',#410,.T.);
#410 = EDGE_LOOP('',(#411));
#411 = ORIENTED_EDGE('',*,*,#341,.F.);
#412 = FACE_BOUND('',#413,.T.);
#413 = EDGE_LOOP('',(#414));
#414 = ORIENTED_EDGE('',*,*,#394,.T.);
#415 = PLANE('',#416);
#416 = AXIS2_PLACEMENT_3D('',#417,#418,#419);
#417 = CARTESIAN_POINT('',(16.,-1.153330272123E-14,-1.42108547152E-14));
#418 = DIRECTION('',(1.,-1.110223024625E-15,8.258387601532E-31));
#419 = DIRECTION('',(-1.33226762955E-15,-2.22044604925E-16,1.));
#420 = ( GEOMETRIC_REPRESENTATION_CONTEXT(3) 
GLOBAL_UNCERTAINTY_ASSIGNED_CONTEXT((#424)) GLOBAL_UNIT_ASSIGNED_CONTEXT
((#421,#422,#423)) REPRESENTATION_CONTEXT('Context #1',
  '3D Context with UNIT and UNCERTAINTY') );
#421 = ( LENGTH_UNIT() NAMED_UNIT(*) SI_UNIT(.MILLI.,.METRE.) );
#422 = ( NAMED_UNIT(*) PLANE_ANGLE_UNIT() SI_UNIT($,.RADIAN.) );
#423 = ( NAMED_UNIT(*) SI_UNIT($,.STERADIAN.) SOLID_ANGLE_UNIT() );
#424 = UNCERTAINTY_MEASURE_WITH_UNIT(LENGTH_MEASURE(1.E-07),#421,
  'distance_accuracy_value','confusion accuracy');
#425 = PRODUCT_RELATED_PRODUCT_CATEGORY('part',$,(#7));
#426 = MECHANICAL_DESIGN_GEOMETRIC_PRESENTATION_REPRESENTATION('',(#427)
  ,#420);
#427 = STYLED_ITEM('color',(#428),#15);
#428 = PRESENTATION_STYLE_ASSIGNMENT((#429,#435));
#429 = SURFACE_STYLE_USAGE(.BOTH.,#430);
#430 = SURFACE_SIDE_STYLE('',(#431));
#431 = SURFACE_STYLE_FILL_AREA(#432);
#432 = FILL_AREA_STYLE('',(#433));
#433 = FILL_AREA_STYLE_COLOUR('',#434);
#434 = COLOUR_RGB('',0.800000010877,0.800000010877,0.800000010877);
#435 = CURVE_STYLE('',#436,POSITIVE_LENGTH_MEASURE(0.1),#437);
#436 = DRAUGHTING_PRE_DEFINED_CURVE_FONT('continuous');
#437 = COLOUR_RGB('',9.803921802644E-02,9.803921802644E-02,
  9.803921802644E-02);
ENDSEC;
END-ISO-10303-21;
