ISO-10303-21;
HEADER;
/* Generated by software containing ST-Developer
 * from STEP Tools, Inc. (www.steptools.com) 
 */

FILE_DESCRIPTION(
/* description */ ('AXE DE GUIDAGE \X\D840'),
/* implementation_level */ '2;1');

FILE_NAME(
/* name */ 
'C:\\Users\\Public\\Documents\\Autodesk\\Inventor 2022\\Espace de trav
ail\\Perso\\F003.stp',
/* time_stamp */ '2024-02-08T13:53:59+01:00',
/* author */ ('vvernier'),
/* organization */ (''),
/* preprocessor_version */ 'ST-DEVELOPER v18.1',
/* originating_system */ 'Autodesk Inventor 2022',
/* authorisation */ '');

FILE_SCHEMA (('AUTOMOTIVE_DESIGN { 1 0 10303 214 3 1 1 }'));
ENDSEC;

DATA;
#10=MECHANICAL_DESIGN_GEOMETRIC_PRESENTATION_REPRESENTATION('',(#18,#19),
#346);
#11=SHAPE_REPRESENTATION_RELATIONSHIP('SRR','None',#353,#12);
#12=ADVANCED_BREP_SHAPE_REPRESENTATION('',(#13),#345);
#13=MANIFOLD_SOLID_BREP('Solide1',#179);
#14=FACE_BOUND('',#45,.T.);
#15=FACE_BOUND('',#48,.T.);
#16=PLANE('',#225);
#17=PLANE('',#228);
#18=STYLED_ITEM('',(#363),#174);
#19=STYLED_ITEM('',(#362),#13);
#20=TOROIDAL_SURFACE('',#210,19.,1.);
#21=TOROIDAL_SURFACE('',#222,17.8929270498654,1.);
#22=CYLINDRICAL_SURFACE('',#204,4.188);
#23=CYLINDRICAL_SURFACE('',#208,4.188);
#24=CYLINDRICAL_SURFACE('',#219,20.);
#25=FACE_OUTER_BOUND('',#36,.T.);
#26=FACE_OUTER_BOUND('',#37,.T.);
#27=FACE_OUTER_BOUND('',#38,.T.);
#28=FACE_OUTER_BOUND('',#39,.T.);
#29=FACE_OUTER_BOUND('',#40,.T.);
#30=FACE_OUTER_BOUND('',#41,.T.);
#31=FACE_OUTER_BOUND('',#42,.T.);
#32=FACE_OUTER_BOUND('',#43,.T.);
#33=FACE_OUTER_BOUND('',#44,.T.);
#34=FACE_OUTER_BOUND('',#46,.T.);
#35=FACE_OUTER_BOUND('',#47,.T.);
#36=EDGE_LOOP('',(#118,#119,#120));
#37=EDGE_LOOP('',(#121,#122,#123,#124));
#38=EDGE_LOOP('',(#125,#126,#127));
#39=EDGE_LOOP('',(#128,#129,#130,#131));
#40=EDGE_LOOP('',(#132,#133,#134,#135,#136,#137));
#41=EDGE_LOOP('',(#138,#139,#140,#141,#142,#143));
#42=EDGE_LOOP('',(#144,#145,#146,#147,#148,#149));
#43=EDGE_LOOP('',(#150,#151,#152,#153,#154));
#44=EDGE_LOOP('',(#155));
#45=EDGE_LOOP('',(#156));
#46=EDGE_LOOP('',(#157,#158,#159,#160,#161));
#47=EDGE_LOOP('',(#162));
#48=EDGE_LOOP('',(#163));
#49=LINE('',#297,#56);
#50=LINE('',#301,#57);
#51=LINE('',#306,#58);
#52=LINE('',#310,#59);
#53=LINE('',#326,#60);
#54=LINE('',#329,#61);
#55=LINE('',#340,#62);
#56=VECTOR('',#235,2.094);
#57=VECTOR('',#240,4.188);
#58=VECTOR('',#245,2.094);
#59=VECTOR('',#250,4.188);
#60=VECTOR('',#269,19.3301270189222);
#61=VECTOR('',#272,20.);
#62=VECTOR('',#287,19.);
#63=CIRCLE('',#203,4.188);
#64=CIRCLE('',#205,4.188);
#65=CIRCLE('',#207,4.188);
#66=CIRCLE('',#209,4.188);
#67=CIRCLE('',#211,19.965925826289);
#68=CIRCLE('',#212,1.);
#69=CIRCLE('',#213,20.);
#70=CIRCLE('',#214,20.);
#71=CIRCLE('',#215,19.965925826289);
#72=CIRCLE('',#217,18.8588528761545);
#73=CIRCLE('',#218,18.8588528761545);
#74=CIRCLE('',#220,20.);
#75=CIRCLE('',#221,20.);
#76=CIRCLE('',#223,17.8929270498654);
#77=CIRCLE('',#224,1.);
#78=CIRCLE('',#227,18.);
#79=VERTEX_POINT('',#294);
#80=VERTEX_POINT('',#296);
#81=VERTEX_POINT('',#299);
#82=VERTEX_POINT('',#303);
#83=VERTEX_POINT('',#305);
#84=VERTEX_POINT('',#308);
#85=VERTEX_POINT('',#312);
#86=VERTEX_POINT('',#313);
#87=VERTEX_POINT('',#315);
#88=VERTEX_POINT('',#317);
#89=VERTEX_POINT('',#322);
#90=VERTEX_POINT('',#323);
#91=VERTEX_POINT('',#328);
#92=VERTEX_POINT('',#330);
#93=VERTEX_POINT('',#334);
#94=VERTEX_POINT('',#339);
#95=EDGE_CURVE('',#79,#79,#63,.T.);
#96=EDGE_CURVE('',#79,#80,#49,.T.);
#97=EDGE_CURVE('',#81,#81,#64,.T.);
#98=EDGE_CURVE('',#81,#79,#50,.T.);
#99=EDGE_CURVE('',#82,#82,#65,.T.);
#100=EDGE_CURVE('',#82,#83,#51,.T.);
#101=EDGE_CURVE('',#84,#84,#66,.T.);
#102=EDGE_CURVE('',#84,#82,#52,.T.);
#103=EDGE_CURVE('',#85,#86,#67,.T.);
#104=EDGE_CURVE('',#86,#87,#68,.T.);
#105=EDGE_CURVE('',#87,#88,#69,.T.);
#106=EDGE_CURVE('',#88,#87,#70,.T.);
#107=EDGE_CURVE('',#86,#85,#71,.T.);
#108=EDGE_CURVE('',#89,#90,#72,.T.);
#109=EDGE_CURVE('',#90,#89,#73,.T.);
#110=EDGE_CURVE('',#90,#85,#53,.T.);
#111=EDGE_CURVE('',#88,#91,#54,.T.);
#112=EDGE_CURVE('',#92,#91,#74,.T.);
#113=EDGE_CURVE('',#91,#92,#75,.T.);
#114=EDGE_CURVE('',#93,#93,#76,.T.);
#115=EDGE_CURVE('',#93,#89,#77,.T.);
#116=EDGE_CURVE('',#92,#94,#55,.T.);
#117=EDGE_CURVE('',#94,#94,#78,.T.);
#118=ORIENTED_EDGE('',*,*,#95,.T.);
#119=ORIENTED_EDGE('',*,*,#96,.T.);
#120=ORIENTED_EDGE('',*,*,#96,.F.);
#121=ORIENTED_EDGE('',*,*,#97,.F.);
#122=ORIENTED_EDGE('',*,*,#98,.T.);
#123=ORIENTED_EDGE('',*,*,#95,.F.);
#124=ORIENTED_EDGE('',*,*,#98,.F.);
#125=ORIENTED_EDGE('',*,*,#99,.T.);
#126=ORIENTED_EDGE('',*,*,#100,.T.);
#127=ORIENTED_EDGE('',*,*,#100,.F.);
#128=ORIENTED_EDGE('',*,*,#101,.F.);
#129=ORIENTED_EDGE('',*,*,#102,.T.);
#130=ORIENTED_EDGE('',*,*,#99,.F.);
#131=ORIENTED_EDGE('',*,*,#102,.F.);
#132=ORIENTED_EDGE('',*,*,#103,.T.);
#133=ORIENTED_EDGE('',*,*,#104,.T.);
#134=ORIENTED_EDGE('',*,*,#105,.T.);
#135=ORIENTED_EDGE('',*,*,#106,.T.);
#136=ORIENTED_EDGE('',*,*,#104,.F.);
#137=ORIENTED_EDGE('',*,*,#107,.T.);
#138=ORIENTED_EDGE('',*,*,#108,.F.);
#139=ORIENTED_EDGE('',*,*,#109,.F.);
#140=ORIENTED_EDGE('',*,*,#110,.T.);
#141=ORIENTED_EDGE('',*,*,#107,.F.);
#142=ORIENTED_EDGE('',*,*,#103,.F.);
#143=ORIENTED_EDGE('',*,*,#110,.F.);
#144=ORIENTED_EDGE('',*,*,#105,.F.);
#145=ORIENTED_EDGE('',*,*,#106,.F.);
#146=ORIENTED_EDGE('',*,*,#111,.T.);
#147=ORIENTED_EDGE('',*,*,#112,.F.);
#148=ORIENTED_EDGE('',*,*,#113,.F.);
#149=ORIENTED_EDGE('',*,*,#111,.F.);
#150=ORIENTED_EDGE('',*,*,#114,.T.);
#151=ORIENTED_EDGE('',*,*,#115,.T.);
#152=ORIENTED_EDGE('',*,*,#108,.T.);
#153=ORIENTED_EDGE('',*,*,#109,.T.);
#154=ORIENTED_EDGE('',*,*,#115,.F.);
#155=ORIENTED_EDGE('',*,*,#114,.F.);
#156=ORIENTED_EDGE('',*,*,#101,.T.);
#157=ORIENTED_EDGE('',*,*,#112,.T.);
#158=ORIENTED_EDGE('',*,*,#113,.T.);
#159=ORIENTED_EDGE('',*,*,#116,.T.);
#160=ORIENTED_EDGE('',*,*,#117,.T.);
#161=ORIENTED_EDGE('',*,*,#116,.F.);
#162=ORIENTED_EDGE('',*,*,#117,.F.);
#163=ORIENTED_EDGE('',*,*,#97,.T.);
#164=CONICAL_SURFACE('',#202,2.094,1.02974425867665);
#165=CONICAL_SURFACE('',#206,2.094,1.02974425867665);
#166=CONICAL_SURFACE('',#216,19.3301270189222,0.261799387799149);
#167=CONICAL_SURFACE('',#226,19.,0.785398163397446);
#168=ADVANCED_FACE('',(#25),#164,.F.);
#169=ADVANCED_FACE('',(#26),#22,.F.);
#170=ADVANCED_FACE('',(#27),#165,.F.);
#171=ADVANCED_FACE('',(#28),#23,.F.);
#172=ADVANCED_FACE('',(#29),#20,.T.);
#173=ADVANCED_FACE('',(#30),#166,.T.);
#174=ADVANCED_FACE('',(#31),#24,.T.);
#175=ADVANCED_FACE('',(#32),#21,.T.);
#176=ADVANCED_FACE('',(#33,#14),#16,.T.);
#177=ADVANCED_FACE('',(#34),#167,.T.);
#178=ADVANCED_FACE('',(#35,#15),#17,.T.);
#179=CLOSED_SHELL('',(#168,#169,#170,#171,#172,#173,#174,#175,#176,#177,
#178));
#180=DERIVED_UNIT_ELEMENT(#183,1.);
#181=DERIVED_UNIT_ELEMENT(#348,-3.);
#182=DIMENSIONAL_EXPONENTS(1.,0.,0.,0.,0.,0.,0.);
#183=(
CONVERSION_BASED_UNIT('gram',#185)
MASS_UNIT()
NAMED_UNIT(#182)
);
#184=(
MASS_UNIT()
NAMED_UNIT(*)
SI_UNIT(.KILO.,.GRAM.)
);
#185=MASS_MEASURE_WITH_UNIT(MASS_MEASURE(0.001),#184);
#186=DERIVED_UNIT((#180,#181));
#187=MEASURE_REPRESENTATION_ITEM('density measure',
POSITIVE_RATIO_MEASURE(7.85),#186);
#188=PROPERTY_DEFINITION_REPRESENTATION(#193,#190);
#189=PROPERTY_DEFINITION_REPRESENTATION(#194,#191);
#190=REPRESENTATION('material name',(#192),#345);
#191=REPRESENTATION('density',(#187),#345);
#192=DESCRIPTIVE_REPRESENTATION_ITEM('Acier C45','Acier C45');
#193=PROPERTY_DEFINITION('material property','material name',#355);
#194=PROPERTY_DEFINITION('material property','density of part',#355);
#195=DATE_TIME_ROLE('creation_date');
#196=APPLIED_DATE_AND_TIME_ASSIGNMENT(#197,#195,(#355));
#197=DATE_AND_TIME(#198,#199);
#198=CALENDAR_DATE(2023,18,12);
#199=LOCAL_TIME(0,0,0.,#200);
#200=COORDINATED_UNIVERSAL_TIME_OFFSET(0,0,.BEHIND.);
#201=AXIS2_PLACEMENT_3D('placement',#292,#229,#230);
#202=AXIS2_PLACEMENT_3D('',#293,#231,#232);
#203=AXIS2_PLACEMENT_3D('',#295,#233,#234);
#204=AXIS2_PLACEMENT_3D('',#298,#236,#237);
#205=AXIS2_PLACEMENT_3D('',#300,#238,#239);
#206=AXIS2_PLACEMENT_3D('',#302,#241,#242);
#207=AXIS2_PLACEMENT_3D('',#304,#243,#244);
#208=AXIS2_PLACEMENT_3D('',#307,#246,#247);
#209=AXIS2_PLACEMENT_3D('',#309,#248,#249);
#210=AXIS2_PLACEMENT_3D('',#311,#251,#252);
#211=AXIS2_PLACEMENT_3D('',#314,#253,#254);
#212=AXIS2_PLACEMENT_3D('',#316,#255,#256);
#213=AXIS2_PLACEMENT_3D('',#318,#257,#258);
#214=AXIS2_PLACEMENT_3D('',#319,#259,#260);
#215=AXIS2_PLACEMENT_3D('',#320,#261,#262);
#216=AXIS2_PLACEMENT_3D('',#321,#263,#264);
#217=AXIS2_PLACEMENT_3D('',#324,#265,#266);
#218=AXIS2_PLACEMENT_3D('',#325,#267,#268);
#219=AXIS2_PLACEMENT_3D('',#327,#270,#271);
#220=AXIS2_PLACEMENT_3D('',#331,#273,#274);
#221=AXIS2_PLACEMENT_3D('',#332,#275,#276);
#222=AXIS2_PLACEMENT_3D('',#333,#277,#278);
#223=AXIS2_PLACEMENT_3D('',#335,#279,#280);
#224=AXIS2_PLACEMENT_3D('',#336,#281,#282);
#225=AXIS2_PLACEMENT_3D('',#337,#283,#284);
#226=AXIS2_PLACEMENT_3D('',#338,#285,#286);
#227=AXIS2_PLACEMENT_3D('',#341,#288,#289);
#228=AXIS2_PLACEMENT_3D('',#342,#290,#291);
#229=DIRECTION('axis',(0.,0.,1.));
#230=DIRECTION('refdir',(1.,0.,0.));
#231=DIRECTION('center_axis',(3.06161699786838E-16,-1.,0.));
#232=DIRECTION('ref_axis',(1.,3.06161699786838E-16,0.));
#233=DIRECTION('center_axis',(3.06161699786838E-16,-1.,0.));
#234=DIRECTION('ref_axis',(1.,3.06161699786838E-16,0.));
#235=DIRECTION('',(0.857167300702112,0.515038074910054,1.04972719113862E-16));
#236=DIRECTION('center_axis',(3.06161699786838E-16,-1.,0.));
#237=DIRECTION('ref_axis',(1.,3.06161699786838E-16,0.));
#238=DIRECTION('center_axis',(-3.06161699786838E-16,1.,0.));
#239=DIRECTION('ref_axis',(1.,3.06161699786838E-16,0.));
#240=DIRECTION('',(-3.06161699786838E-16,1.,0.));
#241=DIRECTION('center_axis',(-3.06161699786838E-16,1.,0.));
#242=DIRECTION('ref_axis',(1.,3.06161699786838E-16,0.));
#243=DIRECTION('center_axis',(-3.06161699786838E-16,1.,0.));
#244=DIRECTION('ref_axis',(1.,3.06161699786838E-16,0.));
#245=DIRECTION('',(0.857167300702113,-0.515038074910054,-1.04972719113862E-16));
#246=DIRECTION('center_axis',(-3.06161699786838E-16,1.,0.));
#247=DIRECTION('ref_axis',(1.,3.06161699786838E-16,0.));
#248=DIRECTION('center_axis',(3.06161699786838E-16,-1.,0.));
#249=DIRECTION('ref_axis',(1.,3.06161699786838E-16,0.));
#250=DIRECTION('',(3.06161699786838E-16,-1.,0.));
#251=DIRECTION('center_axis',(-3.06161699786838E-16,1.,0.));
#252=DIRECTION('ref_axis',(0.,0.,1.));
#253=DIRECTION('center_axis',(0.,-1.,0.));
#254=DIRECTION('ref_axis',(1.,0.,-6.12323399573676E-17));
#255=DIRECTION('center_axis',(-1.,-3.06161699786838E-16,1.22464679914735E-16));
#256=DIRECTION('ref_axis',(-1.22464679914735E-16,0.,-1.));
#257=DIRECTION('center_axis',(-3.06161699786838E-16,1.,0.));
#258=DIRECTION('ref_axis',(1.,3.06178693509907E-16,0.));
#259=DIRECTION('center_axis',(-3.06161699786838E-16,1.,0.));
#260=DIRECTION('ref_axis',(1.,3.06178693509907E-16,0.));
#261=DIRECTION('center_axis',(0.,-1.,0.));
#262=DIRECTION('ref_axis',(1.,0.,-6.12323399573676E-17));
#263=DIRECTION('center_axis',(3.06161699786838E-16,-1.,0.));
#264=DIRECTION('ref_axis',(-1.,-3.06161699786838E-16,0.));
#265=DIRECTION('center_axis',(0.,1.,0.));
#266=DIRECTION('ref_axis',(1.,0.,-6.12323399573676E-17));
#267=DIRECTION('center_axis',(0.,1.,0.));
#268=DIRECTION('ref_axis',(1.,0.,-6.12323399573676E-17));
#269=DIRECTION('',(0.258819045102521,-0.965925826289068,-3.16961915143176E-17));
#270=DIRECTION('center_axis',(-3.06161699786838E-16,1.,0.));
#271=DIRECTION('ref_axis',(-1.,-3.06161699786838E-16,0.));
#272=DIRECTION('',(3.06161699786838E-16,-1.,0.));
#273=DIRECTION('center_axis',(3.06161699786838E-16,-1.,0.));
#274=DIRECTION('ref_axis',(1.,3.06161699786838E-16,0.));
#275=DIRECTION('center_axis',(3.06161699786838E-16,-1.,0.));
#276=DIRECTION('ref_axis',(1.,3.06161699786838E-16,0.));
#277=DIRECTION('center_axis',(-3.06161699786838E-16,1.,0.));
#278=DIRECTION('ref_axis',(0.,0.,1.));
#279=DIRECTION('center_axis',(3.06161699786838E-16,-1.,0.));
#280=DIRECTION('ref_axis',(1.,3.06161699786838E-16,0.));
#281=DIRECTION('center_axis',(-1.,-3.06161699786838E-16,1.22464679914735E-16));
#282=DIRECTION('ref_axis',(-1.22464679914735E-16,0.,-1.));
#283=DIRECTION('center_axis',(-3.06161699786838E-16,1.,0.));
#284=DIRECTION('ref_axis',(0.,0.,1.));
#285=DIRECTION('center_axis',(-3.06161699786838E-16,1.,0.));
#286=DIRECTION('ref_axis',(1.,3.06161699786838E-16,0.));
#287=DIRECTION('',(0.707106781186546,-0.707106781186549,-8.65956056235491E-17));
#288=DIRECTION('center_axis',(-3.06161699786838E-16,1.,0.));
#289=DIRECTION('ref_axis',(1.,3.06161699786838E-16,0.));
#290=DIRECTION('center_axis',(3.06161699786838E-16,-1.,0.));
#291=DIRECTION('ref_axis',(0.,0.,-1.));
#292=CARTESIAN_POINT('',(0.,0.,0.));
#293=CARTESIAN_POINT('Origin',(-8.74342770888849E-15,28.5582021362437,0.));
#294=CARTESIAN_POINT('',(-4.18800000000001,27.3,-5.12882079482912E-16));
#295=CARTESIAN_POINT('Origin',(-8.35821440418069E-15,27.3,0.));
#296=CARTESIAN_POINT('',(-9.1286410135963E-15,29.8164042724874,0.));
#297=CARTESIAN_POINT('',(-2.09400000000001,28.5582021362437,-2.56441039741456E-16));
#298=CARTESIAN_POINT('Origin',(-4.17910720209034E-15,13.65,0.));
#299=CARTESIAN_POINT('',(-4.188,2.22044604925031E-15,-5.12882079482912E-16));
#300=CARTESIAN_POINT('Origin',(-2.46519032881566E-30,4.44089209850063E-15,
0.));
#301=CARTESIAN_POINT('',(-4.188,13.65,-5.12882079482912E-16));
#302=CARTESIAN_POINT('Origin',(-9.84131672165049E-14,321.441797863756,0.));
#303=CARTESIAN_POINT('',(-4.18800000000007,322.7,5.12882079482908E-16));
#304=CARTESIAN_POINT('Origin',(-9.87983805212127E-14,322.7,0.));
#305=CARTESIAN_POINT('',(-9.80279539117971E-14,320.183595727513,0.));
#306=CARTESIAN_POINT('',(-2.0940000000001,321.441797863756,2.56441039741456E-16));
#307=CARTESIAN_POINT('Origin',(-1.02977487723303E-13,336.35,0.));
#308=CARTESIAN_POINT('',(-4.18800000000011,350.,5.12882079482912E-16));
#309=CARTESIAN_POINT('Origin',(-1.07156594925393E-13,350.,0.));
#310=CARTESIAN_POINT('',(-4.1880000000001,336.35,5.12882079482912E-16));
#311=CARTESIAN_POINT('Origin',(-1.05585479474017E-13,344.868347502413,0.));
#312=CARTESIAN_POINT('',(19.9659258262889,345.127166547515,-2.44512071551784E-15));
#313=CARTESIAN_POINT('',(-1.0810984066832E-13,345.127166547515,-19.965925826289));
#314=CARTESIAN_POINT('Origin',(-1.0547118733939E-13,345.127166547515,-1.22256035775892E-15));
#315=CARTESIAN_POINT('',(-1.08034773072311E-13,344.868347502413,-20.));
#316=CARTESIAN_POINT('Origin',(-1.07912308392397E-13,344.868347502413,-19.));
#317=CARTESIAN_POINT('',(19.9999999999999,344.868347502413,-2.4492935982947E-15));
#318=CARTESIAN_POINT('Origin',(-1.05585479474017E-13,344.868347502413,0.));
#319=CARTESIAN_POINT('Origin',(-1.05585479474017E-13,344.868347502413,0.));
#320=CARTESIAN_POINT('Origin',(-1.0547118733939E-13,345.127166547515,-1.22256035775892E-15));
#321=CARTESIAN_POINT('Origin',(-1.06391190675926E-13,347.5,0.));
#322=CARTESIAN_POINT('',(-1.0923921708543E-13,349.258819045102,-18.8588528761545));
#323=CARTESIAN_POINT('',(18.8588528761544,349.258819045102,-2.30954338103734E-15));
#324=CARTESIAN_POINT('Origin',(-1.06581410364015E-13,349.258819045102,-1.15477169051867E-15));
#325=CARTESIAN_POINT('Origin',(-1.06581410364015E-13,349.258819045102,-1.15477169051867E-15));
#326=CARTESIAN_POINT('',(19.3301270189221,347.5,-2.36725781808348E-15));
#327=CARTESIAN_POINT('Origin',(-5.28128932132296E-14,172.5,0.));
#328=CARTESIAN_POINT('',(20.,1.99999999999999,-2.4492935982947E-15));
#329=CARTESIAN_POINT('',(19.9999999999999,172.5,-2.4492935982947E-15));
#330=CARTESIAN_POINT('',(-20.,1.99999999999999,-2.4492935982947E-15));
#331=CARTESIAN_POINT('Origin',(-6.12323399573676E-16,1.99999999999999,0.));
#332=CARTESIAN_POINT('Origin',(-6.12323399573676E-16,1.99999999999999,0.));
#333=CARTESIAN_POINT('Origin',(-1.06850433225607E-13,349.,0.));
#334=CARTESIAN_POINT('',(-1.09347846509293E-13,350.,-17.8929270498654));
#335=CARTESIAN_POINT('Origin',(-1.07156594925393E-13,350.,0.));
#336=CARTESIAN_POINT('Origin',(-1.09041684809506E-13,349.,-17.8929270498654));
#337=CARTESIAN_POINT('Origin',(-1.07156594925393E-13,350.,0.));
#338=CARTESIAN_POINT('Origin',(-3.06161699786839E-16,0.999999999999998,
0.));
#339=CARTESIAN_POINT('',(-18.,-1.90268576613133E-15,2.20436423846524E-15));
#340=CARTESIAN_POINT('',(-19.,0.999999999999992,2.32682891837997E-15));
#341=CARTESIAN_POINT('Origin',(-2.46519032881566E-30,3.60822483003176E-15,
0.));
#342=CARTESIAN_POINT('Origin',(-20.,-2.44929359829471E-15,0.));
#343=UNCERTAINTY_MEASURE_WITH_UNIT(LENGTH_MEASURE(0.01),#347,
'DISTANCE_ACCURACY_VALUE',
'Maximum model space distance between geometric entities at asserted c
onnectivities');
#344=UNCERTAINTY_MEASURE_WITH_UNIT(LENGTH_MEASURE(0.01),#347,
'DISTANCE_ACCURACY_VALUE',
'Maximum model space distance between geometric entities at asserted c
onnectivities');
#345=(
GEOMETRIC_REPRESENTATION_CONTEXT(3)
GLOBAL_UNCERTAINTY_ASSIGNED_CONTEXT((#343))
GLOBAL_UNIT_ASSIGNED_CONTEXT((#347,#349,#350))
REPRESENTATION_CONTEXT('','3D')
);
#346=(
GEOMETRIC_REPRESENTATION_CONTEXT(3)
GLOBAL_UNCERTAINTY_ASSIGNED_CONTEXT((#344))
GLOBAL_UNIT_ASSIGNED_CONTEXT((#347,#349,#350))
REPRESENTATION_CONTEXT('','3D')
);
#347=(
LENGTH_UNIT()
NAMED_UNIT(*)
SI_UNIT(.MILLI.,.METRE.)
);
#348=(
LENGTH_UNIT()
NAMED_UNIT(*)
SI_UNIT(.CENTI.,.METRE.)
);
#349=(
NAMED_UNIT(*)
PLANE_ANGLE_UNIT()
SI_UNIT($,.RADIAN.)
);
#350=(
NAMED_UNIT(*)
SI_UNIT($,.STERADIAN.)
SOLID_ANGLE_UNIT()
);
#351=SHAPE_DEFINITION_REPRESENTATION(#352,#353);
#352=PRODUCT_DEFINITION_SHAPE('',$,#355);
#353=SHAPE_REPRESENTATION('',(#201),#345);
#354=PRODUCT_DEFINITION_CONTEXT('part definition',#359,'design');
#355=PRODUCT_DEFINITION('F003','F003',#356,#354);
#356=PRODUCT_DEFINITION_FORMATION('',$,#361);
#357=PRODUCT_RELATED_PRODUCT_CATEGORY('F003','F003',(#361));
#358=APPLICATION_PROTOCOL_DEFINITION('international standard',
'automotive_design',2009,#359);
#359=APPLICATION_CONTEXT(
'Core Data for Automotive Mechanical Design Process');
#360=PRODUCT_CONTEXT('part definition',#359,'mechanical');
#361=PRODUCT('F003','F003','AXE DE GUIDAGE \X\D840',(#360));
#362=PRESENTATION_STYLE_ASSIGNMENT((#364));
#363=PRESENTATION_STYLE_ASSIGNMENT((#365));
#364=SURFACE_STYLE_USAGE(.BOTH.,#370);
#365=SURFACE_STYLE_USAGE(.BOTH.,#371);
#366=SURFACE_STYLE_RENDERING_WITH_PROPERTIES($,#378,(#368));
#367=SURFACE_STYLE_RENDERING_WITH_PROPERTIES($,#379,(#369));
#368=SURFACE_STYLE_TRANSPARENT(0.);
#369=SURFACE_STYLE_TRANSPARENT(0.);
#370=SURFACE_SIDE_STYLE('',(#372,#366));
#371=SURFACE_SIDE_STYLE('',(#373,#367));
#372=SURFACE_STYLE_FILL_AREA(#374);
#373=SURFACE_STYLE_FILL_AREA(#375);
#374=FILL_AREA_STYLE('',(#376));
#375=FILL_AREA_STYLE('',(#377));
#376=FILL_AREA_STYLE_COLOUR('',#378);
#377=FILL_AREA_STYLE_COLOUR('',#379);
#378=COLOUR_RGB('',0.87843137254902,0.874509803921569,0.858823529411765);
#379=COLOUR_RGB('',0.956862745098039,0.956862745098039,0.956862745098039);
ENDSEC;
END-ISO-10303-21;
