ISO-10303-21;
HEADER;
FILE_DESCRIPTION(('Creo Elements/Direct Modeling STEP Export'),'2;1');
FILE_NAME('PION ALU.stp','2024-02-27T10:57:30',(''),(''),
'Creo Elements/Direct Modeling STEP processor for AP214 (Solid Model)',
'Creo Elements/Direct Modeling 20.5  09-Apr-2022 (C) Parametric Technolo
gy GmbH','');
FILE_SCHEMA(('AUTOMOTIVE_DESIGN { 1 0 10303 214 1 1 1 1 }'));
ENDSEC;
DATA;
#10=CARTESIAN_POINT('',(86.8865719657048,1.01686450346611,
16.3623471574237));
#20=DIRECTION('',(-2.81025203108243E-16,-0.0610485395348568,
0.998134798421867));
#30=DIRECTION('',(-0.156434465040231,-0.985846102743556,
-0.0602969307089394));
#40=AXIS2_PLACEMENT_3D('',#10,#20,#30);
#50=PLANE('',#40);
#60=CARTESIAN_POINT('',(159.806756931607,115.574109118048,
23.3689683952715));
#70=DIRECTION('',(-2.72351585728359E-16,-0.0610485395348568,
0.998134798421867));
#80=DIRECTION('',(-0.156434465040231,-0.985846102743556,
-0.0602969307089394));
#90=AXIS2_PLACEMENT_3D('',#60,#70,#80);
#100=CIRCLE('',#90,4.);
#110=CARTESIAN_POINT('',(159.181019071446,111.630724707074,
23.1277806724357));
#120=VERTEX_POINT('',#110);
#130=CARTESIAN_POINT('',(160.432494791768,119.517493529022,
23.6101561181072));
#140=VERTEX_POINT('',#130);
#150=EDGE_CURVE('',#120,#140,#100,.T.);
#160=ORIENTED_EDGE('',*,*,#150,.F.);
#170=EDGE_CURVE('',#140,#120,#100,.T.);
#180=ORIENTED_EDGE('',*,*,#170,.F.);
#190=EDGE_LOOP('',(#180,#160));
#200=FACE_BOUND('',#190,.T.);
#210=CARTESIAN_POINT('',(159.806756931607,115.574109118048,
23.3689683952714));
#220=DIRECTION('',(-2.76406202026667E-16,-0.0610485395348568,
0.998134798421867));
#230=DIRECTION('',(0.987688340595138,-0.156142683229164,
-0.00955009562362246));
#240=AXIS2_PLACEMENT_3D('',#210,#220,#230);
#250=CIRCLE('',#240,5.);
#260=CARTESIAN_POINT('',(164.745198634583,114.793395701902,
23.3212179171533));
#270=VERTEX_POINT('',#260);
#280=CARTESIAN_POINT('',(154.868315228631,116.354822534194,
23.4167188733896));
#290=VERTEX_POINT('',#280);
#300=EDGE_CURVE('',#270,#290,#250,.T.);
#310=ORIENTED_EDGE('',*,*,#300,.T.);
#320=EDGE_CURVE('',#290,#270,#250,.T.);
#330=ORIENTED_EDGE('',*,*,#320,.T.);
#340=EDGE_LOOP('',(#330,#310));
#350=FACE_OUTER_BOUND('',#340,.T.);
#360=ADVANCED_FACE('',(#200,#350),#50,.T.);
#370=CARTESIAN_POINT('',(86.8865719657048,0.894767424396377,
18.3586167542674));
#380=DIRECTION('',(-2.81025203108243E-16,-0.0610485395348568,
0.998134798421867));
#390=DIRECTION('',(-0.156434465040231,-0.985846102743556,
-0.0602969307089394));
#400=AXIS2_PLACEMENT_3D('',#370,#380,#390);
#410=PLANE('',#400);
#420=CARTESIAN_POINT('',(159.806756931607,115.452012038978,
25.3652379921152));
#430=DIRECTION('',(-2.72351585728359E-16,-0.0610485395348568,
0.998134798421867));
#440=DIRECTION('',(-0.156434465040231,-0.985846102743556,
-0.0602969307089394));
#450=AXIS2_PLACEMENT_3D('',#420,#430,#440);
#460=CIRCLE('',#450,4.);
#470=CARTESIAN_POINT('',(159.181019071446,111.508627628004,
25.1240502692794));
#480=VERTEX_POINT('',#470);
#490=CARTESIAN_POINT('',(160.432494791768,119.395396449952,
25.6064257149509));
#500=VERTEX_POINT('',#490);
#510=EDGE_CURVE('',#480,#500,#460,.T.);
#520=ORIENTED_EDGE('',*,*,#510,.T.);
#530=EDGE_CURVE('',#500,#480,#460,.T.);
#540=ORIENTED_EDGE('',*,*,#530,.T.);
#550=EDGE_LOOP('',(#540,#520));
#560=FACE_OUTER_BOUND('',#550,.T.);
#570=ADVANCED_FACE('',(#560),#410,.T.);
#580=CARTESIAN_POINT('',(89.651129779509,161.409012111609,
15.1517955990837));
#590=DIRECTION('',(-2.72351585728359E-16,-0.0610485395348568,
0.998134798421867));
#600=DIRECTION('',(-0.156434465040231,-0.985846102743556,
-0.0602969307089394));
#610=AXIS2_PLACEMENT_3D('',#580,#590,#600);
#620=PLANE('',#610);
#630=CARTESIAN_POINT('',(159.806756931607,116.245643052931,
12.3894856126317));
#640=DIRECTION('',(2.5772946019677E-16,0.0610485395348568,
-0.998134798421867));
#650=DIRECTION('',(0.156434465040231,0.985846102743556,
0.0602969307089394));
#660=AXIS2_PLACEMENT_3D('',#630,#640,#650);
#670=CIRCLE('',#660,3.7);
#680=CARTESIAN_POINT('',(159.227949410958,112.59801247278,
12.1663869690086));
#690=VERTEX_POINT('',#680);
#700=CARTESIAN_POINT('',(160.385564452256,119.893273633082,
12.6125842562548));
#710=VERTEX_POINT('',#700);
#720=EDGE_CURVE('',#690,#710,#670,.T.);
#730=ORIENTED_EDGE('',*,*,#720,.T.);
#740=EDGE_CURVE('',#710,#690,#670,.T.);
#750=ORIENTED_EDGE('',*,*,#740,.T.);
#760=EDGE_LOOP('',(#750,#730));
#770=FACE_OUTER_BOUND('',#760,.T.);
#780=ADVANCED_FACE('',(#770),#620,.F.);
#790=CARTESIAN_POINT('',(159.806756931607,115.452012038978,
25.3652379921152));
#800=DIRECTION('',(-2.72351585728359E-16,-0.0610485395348568,
0.998134798421867));
#810=DIRECTION('',(-0.156434465040231,-0.985846102743556,
-0.0602969307089394));
#820=AXIS2_PLACEMENT_3D('',#790,#800,#810);
#830=CYLINDRICAL_SURFACE('',#820,4.);
#840=CARTESIAN_POINT('',(159.181019071446,111.508627628004,
25.1240502692795));
#850=DIRECTION('',(-2.72351585728359E-16,-0.0610485395348568,
0.998134798421867));
#860=VECTOR('',#850,1.);
#870=LINE('',#840,#860);
#880=CARTESIAN_POINT('',(159.181019071446,112.119113023352,
15.142702285061));
#890=VERTEX_POINT('',#880);
#900=CARTESIAN_POINT('',(159.181019071446,111.691773246608,
22.1296458740138));
#910=VERTEX_POINT('',#900);
#920=EDGE_CURVE('',#890,#910,#870,.T.);
#930=ORIENTED_EDGE('',*,*,#920,.F.);
#940=CARTESIAN_POINT('',(159.806756931607,115.635157657583,
22.3708335968496));
#950=DIRECTION('',(-2.72351585728359E-16,-0.0610485395348568,
0.998134798421867));
#960=DIRECTION('',(-0.156434465040231,-0.985846102743556,
-0.0602969307089394));
#970=AXIS2_PLACEMENT_3D('',#940,#950,#960);
#980=CIRCLE('',#970,4.);
#990=CARTESIAN_POINT('',(160.432494791768,119.578542068557,
22.6120213196854));
#1000=VERTEX_POINT('',#990);
#1010=EDGE_CURVE('',#910,#1000,#980,.T.);
#1020=ORIENTED_EDGE('',*,*,#1010,.F.);
#1030=CARTESIAN_POINT('',(160.432494791768,119.395396449952,
25.606425714951));
#1040=DIRECTION('',(-2.72351585728359E-16,-0.0610485395348568,
0.998134798421867));
#1050=VECTOR('',#1040,1.);
#1060=LINE('',#1030,#1050);
#1070=CARTESIAN_POINT('',(160.432494791768,120.005881845301,
15.6250777307324));
#1080=VERTEX_POINT('',#1070);
#1090=EDGE_CURVE('',#1080,#1000,#1060,.T.);
#1100=ORIENTED_EDGE('',*,*,#1090,.T.);
#1110=CARTESIAN_POINT('',(159.806756931607,116.062497434327,
15.3838900078966));
#1120=DIRECTION('',(2.5772946019677E-16,0.0610485395348568,
-0.998134798421867));
#1130=DIRECTION('',(0.156434465040231,0.985846102743556,
0.0602969307089394));
#1140=AXIS2_PLACEMENT_3D('',#1110,#1120,#1130);
#1150=CIRCLE('',#1140,4.);
#1160=EDGE_CURVE('',#1080,#890,#1150,.T.);
#1170=ORIENTED_EDGE('',*,*,#1160,.F.);
#1180=EDGE_LOOP('',(#1170,#1100,#1020,#930));
#1190=FACE_OUTER_BOUND('',#1180,.T.);
#1200=ADVANCED_FACE('',(#1190),#830,.T.);
#1210=CARTESIAN_POINT('',(159.806756931607,116.062497434327,
15.3838900078966));
#1220=DIRECTION('',(0.,0.0610485395348519,-0.998134798421867));
#1230=DIRECTION('',(0.156434465040231,0.985846102743556,
0.0602969307089394));
#1240=AXIS2_PLACEMENT_3D('',#1210,#1220,#1230);
#1250=CONICAL_SURFACE('',#1240,4.,0.785398163397449);
#1260=CARTESIAN_POINT('',(160.432494791768,120.005881845301,
15.6250777307324));
#1270=DIRECTION('',(0.110615871041235,0.74026630074293,
-0.663151515913345));
#1280=VECTOR('',#1270,5.65685424949237);
#1290=LINE('',#1260,#1280);
#1300=CARTESIAN_POINT('',(160.510712024288,120.52932916644,
15.1561587968759));
#1310=VERTEX_POINT('',#1300);
#1320=EDGE_CURVE('',#1080,#1310,#1290,.T.);
#1330=ORIENTED_EDGE('',*,*,#1320,.F.);
#1340=CARTESIAN_POINT('',(159.806756931607,116.093021704094,
14.8848226086857));
#1350=DIRECTION('',(2.5772946019677E-16,0.0610485395348568,
-0.998134798421867));
#1360=DIRECTION('',(0.156434465040231,0.985846102743556,
0.0602969307089394));
#1370=AXIS2_PLACEMENT_3D('',#1340,#1350,#1360);
#1380=CIRCLE('',#1370,4.5);
#1390=CARTESIAN_POINT('',(159.102801838926,111.656714241748,
14.6134864204955));
#1400=VERTEX_POINT('',#1390);
#1410=EDGE_CURVE('',#1310,#1400,#1380,.T.);
#1420=ORIENTED_EDGE('',*,*,#1410,.F.);
#1430=CARTESIAN_POINT('',(159.181019071446,112.119113023352,
15.1427022850609));
#1440=DIRECTION('',(-0.11061587104124,-0.653930628169667,
-0.748424253091395));
#1450=VECTOR('',#1440,5.65685424949239);
#1460=LINE('',#1430,#1450);
#1470=EDGE_CURVE('',#890,#1400,#1460,.T.);
#1480=ORIENTED_EDGE('',*,*,#1470,.T.);
#1490=ORIENTED_EDGE('',*,*,#1160,.T.);
#1500=EDGE_LOOP('',(#1490,#1480,#1420,#1330));
#1510=FACE_OUTER_BOUND('',#1500,.T.);
#1520=ADVANCED_FACE('',(#1510),#1250,.T.);
#1530=CARTESIAN_POINT('',(159.806756931607,116.245643052931,
12.3894856126317));
#1540=DIRECTION('',(2.5772946019677E-16,0.0610485395348568,
-0.998134798421867));
#1550=DIRECTION('',(-0.156434465040231,-0.985846102743556,
-0.0602969307089394));
#1560=AXIS2_PLACEMENT_3D('',#1530,#1540,#1550);
#1570=CYLINDRICAL_SURFACE('',#1560,4.5);
#1580=CARTESIAN_POINT('',(159.102801838926,111.809335590585,
12.1181494244415));
#1590=DIRECTION('',(2.5772946019677E-16,0.0610485395348568,
-0.998134798421867));
#1600=VECTOR('',#1590,1.);
#1610=LINE('',#1580,#1600);
#1620=CARTESIAN_POINT('',(159.102801838926,111.675152003495,
14.3120316806303));
#1630=VERTEX_POINT('',#1620);
#1640=EDGE_CURVE('',#1400,#1630,#1610,.T.);
#1650=ORIENTED_EDGE('',*,*,#1640,.T.);
#1660=ORIENTED_EDGE('',*,*,#1410,.T.);
#1670=CARTESIAN_POINT('',(160.510712024288,120.681950515277,
12.660821800822));
#1680=DIRECTION('',(2.5772946019677E-16,0.0610485395348568,
-0.998134798421867));
#1690=VECTOR('',#1680,1.);
#1700=LINE('',#1670,#1690);
#1710=CARTESIAN_POINT('',(160.510712024288,120.547766928187,
14.8547040570107));
#1720=VERTEX_POINT('',#1710);
#1730=EDGE_CURVE('',#1310,#1720,#1700,.T.);
#1740=ORIENTED_EDGE('',*,*,#1730,.F.);
#1750=CARTESIAN_POINT('',(159.806756931607,116.111459465841,
14.5833678688205));
#1760=DIRECTION('',(2.5772946019677E-16,0.0610485395348568,
-0.998134798421867));
#1770=DIRECTION('',(0.156434465040231,0.985846102743556,
0.0602969307089394));
#1780=AXIS2_PLACEMENT_3D('',#1750,#1760,#1770);
#1790=CIRCLE('',#1780,4.5);
#1800=EDGE_CURVE('',#1720,#1630,#1790,.T.);
#1810=ORIENTED_EDGE('',*,*,#1800,.F.);
#1820=EDGE_LOOP('',(#1810,#1740,#1660,#1650));
#1830=FACE_OUTER_BOUND('',#1820,.T.);
#1840=ADVANCED_FACE('',(#1830),#1570,.T.);
#1850=CARTESIAN_POINT('',(159.806756931607,116.245643052931,
12.3894856126317));
#1860=DIRECTION('',(0.,-0.0610485395348575,0.998134798421867));
#1870=DIRECTION('',(-0.156434465040231,-0.985846102743556,
-0.0602969307089394));
#1880=AXIS2_PLACEMENT_3D('',#1850,#1860,#1870);
#1890=CONICAL_SURFACE('',#1880,3.7,0.349065850398866);
#1900=CARTESIAN_POINT('',(159.227949410958,112.59801247278,
12.1663869690086));
#1910=DIRECTION('',(-0.0535037381541351,-0.394546087468065,
0.917317139743489));
#1920=VECTOR('',#1910,10.8180762806034);
#1930=LINE('',#1900,#1920);
#1940=EDGE_CURVE('',#690,#1630,#1930,.T.);
#1950=ORIENTED_EDGE('',*,*,#1940,.F.);
#1960=ORIENTED_EDGE('',*,*,#1800,.T.);
#1970=CARTESIAN_POINT('',(160.385564452256,119.893273633082,
12.6125842562548));
#1980=DIRECTION('',(0.0535037381541352,0.279812363246741,
0.958562669509828));
#1990=VECTOR('',#1980,10.8180762806034);
#2000=LINE('',#1970,#1990);
#2010=EDGE_CURVE('',#710,#1720,#2000,.T.);
#2020=ORIENTED_EDGE('',*,*,#2010,.T.);
#2030=ORIENTED_EDGE('',*,*,#740,.F.);
#2040=EDGE_LOOP('',(#2030,#2020,#1960,#1950));
#2050=FACE_OUTER_BOUND('',#2040,.T.);
#2060=ADVANCED_FACE('',(#2050),#1890,.T.);
#2070=CARTESIAN_POINT('',(159.806756931607,115.574109118048,
23.3689683952715));
#2080=DIRECTION('',(-2.76406202026667E-16,-0.0610485395348568,
0.998134798421867));
#2090=DIRECTION('',(0.987688340595138,-0.156142683229164,
-0.00955009562362246));
#2100=AXIS2_PLACEMENT_3D('',#2070,#2080,#2090);
#2110=CYLINDRICAL_SURFACE('',#2100,5.);
#2120=CARTESIAN_POINT('',(164.745198634583,114.793395701902,
23.3212179171533));
#2130=DIRECTION('',(-2.76406202026667E-16,-0.0610485395348568,
0.998134798421867));
#2140=VECTOR('',#2130,1.);
#2150=LINE('',#2120,#2140);
#2160=CARTESIAN_POINT('',(164.745198634583,114.854444241437,
22.3230831187315));
#2170=VERTEX_POINT('',#2160);
#2180=EDGE_CURVE('',#2170,#270,#2150,.T.);
#2190=ORIENTED_EDGE('',*,*,#2180,.T.);
#2200=CARTESIAN_POINT('',(159.806756931607,115.635157657583,
22.3708335968496));
#2210=DIRECTION('',(-2.76406202026667E-16,-0.0610485395348568,
0.998134798421867));
#2220=DIRECTION('',(0.987688340595138,-0.156142683229164,
-0.00955009562362246));
#2230=AXIS2_PLACEMENT_3D('',#2200,#2210,#2220);
#2240=CIRCLE('',#2230,5.);
#2250=CARTESIAN_POINT('',(154.868315228631,116.415871073728,
22.4185840749677));
#2260=VERTEX_POINT('',#2250);
#2270=EDGE_CURVE('',#2260,#2170,#2240,.T.);
#2280=ORIENTED_EDGE('',*,*,#2270,.T.);
#2290=CARTESIAN_POINT('',(154.868315228631,116.354822534194,
23.4167188733896));
#2300=DIRECTION('',(-2.76406202026667E-16,-0.0610485395348568,
0.998134798421867));
#2310=VECTOR('',#2300,1.);
#2320=LINE('',#2290,#2310);
#2330=EDGE_CURVE('',#2260,#290,#2320,.T.);
#2340=ORIENTED_EDGE('',*,*,#2330,.F.);
#2350=ORIENTED_EDGE('',*,*,#320,.F.);
#2360=EDGE_LOOP('',(#2350,#2340,#2280,#2190));
#2370=FACE_OUTER_BOUND('',#2360,.T.);
#2380=ADVANCED_FACE('',(#2370),#2110,.T.);
#2390=CARTESIAN_POINT('',(160.354277559248,119.085619017185,
22.5818728543309));
#2400=DIRECTION('',(-2.79290479632266E-16,-0.0610485395348568,
0.998134798421867));
#2410=DIRECTION('',(0.987688340595138,-0.156142683229164,
-0.00955009562362246));
#2420=AXIS2_PLACEMENT_3D('',#2390,#2400,#2410);
#2430=PLANE('',#2420);
#2440=ORIENTED_EDGE('',*,*,#1010,.T.);
#2450=EDGE_CURVE('',#1000,#910,#980,.T.);
#2460=ORIENTED_EDGE('',*,*,#2450,.T.);
#2470=EDGE_LOOP('',(#2460,#2440));
#2480=FACE_BOUND('',#2470,.T.);
#2490=EDGE_CURVE('',#2170,#2260,#2240,.T.);
#2500=ORIENTED_EDGE('',*,*,#2490,.F.);
#2510=ORIENTED_EDGE('',*,*,#2270,.F.);
#2520=EDGE_LOOP('',(#2510,#2500));
#2530=FACE_OUTER_BOUND('',#2520,.T.);
#2540=ADVANCED_FACE('',(#2480,#2530),#2430,.F.);
#2550=CARTESIAN_POINT('',(159.806756931607,116.245643052931,
12.3894856126317));
#2560=DIRECTION('',(2.5772946019677E-16,0.0610485395348568,
-0.998134798421867));
#2570=DIRECTION('',(-0.156434465040231,-0.985846102743556,
-0.0602969307089394));
#2580=AXIS2_PLACEMENT_3D('',#2550,#2560,#2570);
#2590=CYLINDRICAL_SURFACE('',#2580,4.5);
#2600=EDGE_CURVE('',#1630,#1720,#1790,.T.);
#2610=ORIENTED_EDGE('',*,*,#2600,.F.);
#2620=ORIENTED_EDGE('',*,*,#1730,.T.);
#2630=EDGE_CURVE('',#1400,#1310,#1380,.T.);
#2640=ORIENTED_EDGE('',*,*,#2630,.T.);
#2650=ORIENTED_EDGE('',*,*,#1640,.F.);
#2660=EDGE_LOOP('',(#2650,#2640,#2620,#2610));
#2670=FACE_OUTER_BOUND('',#2660,.T.);
#2680=ADVANCED_FACE('',(#2670),#2590,.T.);
#2690=CARTESIAN_POINT('',(159.806756931607,116.062497434327,
15.3838900078966));
#2700=DIRECTION('',(0.,0.0610485395348519,-0.998134798421867));
#2710=DIRECTION('',(0.156434465040231,0.985846102743556,
0.0602969307089394));
#2720=AXIS2_PLACEMENT_3D('',#2690,#2700,#2710);
#2730=CONICAL_SURFACE('',#2720,4.,0.785398163397449);
#2740=ORIENTED_EDGE('',*,*,#2630,.F.);
#2750=ORIENTED_EDGE('',*,*,#1320,.T.);
#2760=EDGE_CURVE('',#890,#1080,#1150,.T.);
#2770=ORIENTED_EDGE('',*,*,#2760,.T.);
#2780=ORIENTED_EDGE('',*,*,#1470,.F.);
#2790=EDGE_LOOP('',(#2780,#2770,#2750,#2740));
#2800=FACE_OUTER_BOUND('',#2790,.T.);
#2810=ADVANCED_FACE('',(#2800),#2730,.T.);
#2820=CARTESIAN_POINT('',(159.806756931607,115.574109118048,
23.3689683952715));
#2830=DIRECTION('',(-2.76406202026667E-16,-0.0610485395348568,
0.998134798421867));
#2840=DIRECTION('',(0.987688340595138,-0.156142683229164,
-0.00955009562362246));
#2850=AXIS2_PLACEMENT_3D('',#2820,#2830,#2840);
#2860=CYLINDRICAL_SURFACE('',#2850,5.);
#2870=ORIENTED_EDGE('',*,*,#300,.F.);
#2880=ORIENTED_EDGE('',*,*,#2330,.T.);
#2890=ORIENTED_EDGE('',*,*,#2490,.T.);
#2900=ORIENTED_EDGE('',*,*,#2180,.F.);
#2910=EDGE_LOOP('',(#2900,#2890,#2880,#2870));
#2920=FACE_OUTER_BOUND('',#2910,.T.);
#2930=ADVANCED_FACE('',(#2920),#2860,.T.);
#2940=CARTESIAN_POINT('',(159.806756931607,116.245643052931,
12.3894856126317));
#2950=DIRECTION('',(0.,-0.0610485395348575,0.998134798421867));
#2960=DIRECTION('',(-0.156434465040231,-0.985846102743556,
-0.0602969307089394));
#2970=AXIS2_PLACEMENT_3D('',#2940,#2950,#2960);
#2980=CONICAL_SURFACE('',#2970,3.7,0.349065850398866);
#2990=ORIENTED_EDGE('',*,*,#2600,.T.);
#3000=ORIENTED_EDGE('',*,*,#1940,.T.);
#3010=ORIENTED_EDGE('',*,*,#720,.F.);
#3020=ORIENTED_EDGE('',*,*,#2010,.F.);
#3030=EDGE_LOOP('',(#3020,#3010,#3000,#2990));
#3040=FACE_OUTER_BOUND('',#3030,.T.);
#3050=ADVANCED_FACE('',(#3040),#2980,.T.);
#3060=CARTESIAN_POINT('',(159.806756931607,115.452012038978,
25.3652379921152));
#3070=DIRECTION('',(-2.72351585728359E-16,-0.0610485395348568,
0.998134798421867));
#3080=DIRECTION('',(-0.156434465040231,-0.985846102743556,
-0.0602969307089394));
#3090=AXIS2_PLACEMENT_3D('',#3060,#3070,#3080);
#3100=CYLINDRICAL_SURFACE('',#3090,4.);
#3110=ORIENTED_EDGE('',*,*,#920,.T.);
#3120=ORIENTED_EDGE('',*,*,#2760,.F.);
#3130=ORIENTED_EDGE('',*,*,#1090,.F.);
#3140=ORIENTED_EDGE('',*,*,#2450,.F.);
#3150=EDGE_LOOP('',(#3140,#3130,#3120,#3110));
#3160=FACE_OUTER_BOUND('',#3150,.T.);
#3170=ADVANCED_FACE('',(#3160),#3100,.T.);
#3180=CARTESIAN_POINT('',(159.806756931607,115.452012038978,
25.3652379921152));
#3190=DIRECTION('',(-2.72351585728359E-16,-0.0610485395348568,
0.998134798421867));
#3200=DIRECTION('',(-0.156434465040231,-0.985846102743556,
-0.0602969307089394));
#3210=AXIS2_PLACEMENT_3D('',#3180,#3190,#3200);
#3220=CYLINDRICAL_SURFACE('',#3210,4.);
#3230=CARTESIAN_POINT('',(159.181019071446,111.508627628004,
25.1240502692795));
#3240=DIRECTION('',(-2.72351585728359E-16,-0.0610485395348568,
0.998134798421867));
#3250=VECTOR('',#3240,1.);
#3260=LINE('',#3230,#3250);
#3270=EDGE_CURVE('',#120,#480,#3260,.T.);
#3280=ORIENTED_EDGE('',*,*,#3270,.T.);
#3290=ORIENTED_EDGE('',*,*,#170,.T.);
#3300=CARTESIAN_POINT('',(160.432494791768,119.395396449952,
25.606425714951));
#3310=DIRECTION('',(-2.72351585728359E-16,-0.0610485395348568,
0.998134798421867));
#3320=VECTOR('',#3310,1.);
#3330=LINE('',#3300,#3320);
#3340=EDGE_CURVE('',#140,#500,#3330,.T.);
#3350=ORIENTED_EDGE('',*,*,#3340,.F.);
#3360=ORIENTED_EDGE('',*,*,#530,.F.);
#3370=EDGE_LOOP('',(#3360,#3350,#3290,#3280));
#3380=FACE_OUTER_BOUND('',#3370,.T.);
#3390=ADVANCED_FACE('',(#3380),#3220,.T.);
#3400=CARTESIAN_POINT('',(159.806756931607,115.452012038978,
25.3652379921152));
#3410=DIRECTION('',(-2.72351585728359E-16,-0.0610485395348568,
0.998134798421867));
#3420=DIRECTION('',(-0.156434465040231,-0.985846102743556,
-0.0602969307089394));
#3430=AXIS2_PLACEMENT_3D('',#3400,#3410,#3420);
#3440=CYLINDRICAL_SURFACE('',#3430,4.);
#3450=ORIENTED_EDGE('',*,*,#510,.F.);
#3460=ORIENTED_EDGE('',*,*,#3340,.T.);
#3470=ORIENTED_EDGE('',*,*,#150,.T.);
#3480=ORIENTED_EDGE('',*,*,#3270,.F.);
#3490=EDGE_LOOP('',(#3480,#3470,#3460,#3450));
#3500=FACE_OUTER_BOUND('',#3490,.T.);
#3510=ADVANCED_FACE('',(#3500),#3440,.T.);
#3520=CLOSED_SHELL('',(#3390,#3510,#570,#780,#1200,#1520,#1840,#2060,
#2380,#2540,#2680,#2810,#2930,#3050,#3170,#360));
#3530=MANIFOLD_SOLID_BREP('',#3520);
#3540=CARTESIAN_POINT('',(0.,0.,0.));
#3550=DIRECTION('',(0.,0.,1.));
#3560=DIRECTION('',(1.,0.,0.));
#3570=AXIS2_PLACEMENT_3D('',#3540,#3550,#3560);
#3580=APPLICATION_CONTEXT(' ');
#3590=APPLICATION_PROTOCOL_DEFINITION(' ','automotive_design',1998,#3580
);
#3600=PRODUCT_CONTEXT('',#3580,'mechanical');
#3610=PRODUCT_DEFINITION_CONTEXT('part definition',#3580,'design');
#3620=PRODUCT('PION SELLE.02','PION SELLE.02','',(#3600));
#3630=PRODUCT_RELATED_PRODUCT_CATEGORY('part',' ',(#3620));
#3640=PRODUCT_DEFINITION_FORMATION_WITH_SPECIFIED_SOURCE('','',#3620,
.BOUGHT.);
#3650=PRODUCT_DEFINITION('',' ',#3640,#3610);
#3660=PRODUCT_DEFINITION_SHAPE('','',#3650);
#3670=DIMENSIONAL_EXPONENTS(1.,0.,0.,0.,0.,0.,0.);
#3680=DIMENSIONAL_EXPONENTS(0.,0.,0.,0.,0.,0.,0.);
#3690=DIMENSIONAL_EXPONENTS(0.,0.,0.,0.,0.,0.,0.);
#3700=(LENGTH_UNIT() NAMED_UNIT(*) SI_UNIT(.MILLI.,.METRE.));
#3710=(NAMED_UNIT(*) PLANE_ANGLE_UNIT() SI_UNIT($,.RADIAN.));
#3720=(NAMED_UNIT(*) SI_UNIT($,.STERADIAN.) SOLID_ANGLE_UNIT());
#3730=(GEOMETRIC_REPRESENTATION_CONTEXT(3) 
GLOBAL_UNCERTAINTY_ASSIGNED_CONTEXT((#3740)) 
GLOBAL_UNIT_ASSIGNED_CONTEXT((#3700,#3710,#3720)) REPRESENTATION_CONTEXT
('',''));
#3740=UNCERTAINTY_MEASURE_WITH_UNIT(LENGTH_MEASURE(1.E-6),#3700,
'distance_accuracy_value','maximum gap value');
#3750=ADVANCED_BREP_SHAPE_REPRESENTATION('',(#3570,#3530),#3730);
#3760=SHAPE_DEFINITION_REPRESENTATION(#3660,#3750);
#3770=COLOUR_RGB('',0.600000023841858,0.600000023841858,
0.600000023841858);
#3780=FILL_AREA_STYLE_COLOUR('',#3770);
#3790=FILL_AREA_STYLE('',(#3780));
#3800=SURFACE_STYLE_FILL_AREA(#3790);
#3810=SURFACE_SIDE_STYLE('',(#3800));
#3820=SURFACE_STYLE_USAGE(.BOTH.,#3810);
#3830=PRESENTATION_STYLE_ASSIGNMENT((#3820));
#3840=STYLED_ITEM('',(#3830),#3530);
#3850=DRAUGHTING_MODEL('',(#3840),#3730);
#3860=CARTESIAN_POINT('',(2.52549372422303,162.695972142763,
9.95091194418161));
#3870=DIRECTION('',(0.,0.,1.));
#3880=DIRECTION('',(1.,0.,0.));
#3890=AXIS2_PLACEMENT_3D('',#3860,#3870,#3880);
#3900=ITEM_DEFINED_TRANSFORMATION('PION SELLE.02','',#3570,#3890);
#3910=APPLICATION_CONTEXT(' ');
#3920=APPLICATION_PROTOCOL_DEFINITION(' ','automotive_design',1998,#3910
);
#3930=PRODUCT_CONTEXT('',#3910,'mechanical');
#3940=PRODUCT_DEFINITION_CONTEXT('part definition',#3910,'design');
#3950=PRODUCT('PION SELLE.02','PION SELLE.02','',(#3930));
#3960=PRODUCT_RELATED_PRODUCT_CATEGORY('part',' ',(#3950));
#3970=PRODUCT_DEFINITION_FORMATION_WITH_SPECIFIED_SOURCE('','',#3950,
.BOUGHT.);
#3980=PRODUCT_DEFINITION('',' ',#3970,#3940);
#3990=PRODUCT_DEFINITION_SHAPE('','',#3980);
#4000=DIMENSIONAL_EXPONENTS(1.,0.,0.,0.,0.,0.,0.);
#4010=DIMENSIONAL_EXPONENTS(0.,0.,0.,0.,0.,0.,0.);
#4020=DIMENSIONAL_EXPONENTS(0.,0.,0.,0.,0.,0.,0.);
#4030=(LENGTH_UNIT() NAMED_UNIT(*) SI_UNIT(.MILLI.,.METRE.));
#4040=(NAMED_UNIT(*) PLANE_ANGLE_UNIT() SI_UNIT($,.RADIAN.));
#4050=(NAMED_UNIT(*) SI_UNIT($,.STERADIAN.) SOLID_ANGLE_UNIT());
#4060=(GEOMETRIC_REPRESENTATION_CONTEXT(3) 
GLOBAL_UNCERTAINTY_ASSIGNED_CONTEXT((#4070)) 
GLOBAL_UNIT_ASSIGNED_CONTEXT((#4030,#4040,#4050)) REPRESENTATION_CONTEXT
('',''));
#4070=UNCERTAINTY_MEASURE_WITH_UNIT(LENGTH_MEASURE(1.E-6),#4030,
'distance_accuracy_value','maximum gap value');
#4080=SHAPE_REPRESENTATION('',(#3570,#3890),#4060);
#4090=SHAPE_DEFINITION_REPRESENTATION(#3990,#4080);
#4100=(REPRESENTATION_RELATIONSHIP('','',#3750,#4080) 
REPRESENTATION_RELATIONSHIP_WITH_TRANSFORMATION(#3900) 
SHAPE_REPRESENTATION_RELATIONSHIP());
#4110=NEXT_ASSEMBLY_USAGE_OCCURRENCE('1','','PION SELLE.02',#3980,#3650,
'');
#4120=PRODUCT_DEFINITION_SHAPE('','',#4110);
#4130=CONTEXT_DEPENDENT_SHAPE_REPRESENTATION(#4100,#4120);
ENDSEC;
END-ISO-10303-21;
