ISO-10303-21;
HEADER;
FILE_DESCRIPTION (( 'STEP AP203' ),
    '1' );
FILE_NAME ('AB25.STEP',
    '2024-08-14T08:50:53',
    ( '' ),
    ( '' ),
    'SwSTEP 2.0',
    'SolidWorks 2020',
    '' );
FILE_SCHEMA (( 'CONFIG_CONTROL_DESIGN' ));
ENDSEC;

DATA;
#1 = ADVANCED_FACE ( 'NONE', ( #25 ), #124, .T. ) ;
#2 = DIRECTION ( 'NONE',  ( -0.000000000000000000, -0.000000000000000000, -1.000000000000000000 ) ) ;
#3 = VERTEX_POINT ( 'NONE', #72 ) ;
#4 = VERTEX_POINT ( 'NONE', #188 ) ;
#5 = EDGE_LOOP ( 'NONE', ( #219, #103, #265, #141, #22 ) ) ;
#6 = DIRECTION ( 'NONE',  ( 0.000000000000000000, 0.000000000000000000, -1.000000000000000000 ) ) ;
#7 = AXIS2_PLACEMENT_3D ( 'NONE', #134, #87, #274 ) ;
#8 = APPLICATION_CONTEXT ( 'configuration controlled 3d designs of mechanical parts and assemblies' ) ;
#9 = ORIENTED_EDGE ( 'NONE', *, *, #27, .F. ) ;
#10 = APPROVAL_ROLE ( '' ) ;
#11 = LOCAL_TIME ( 10, 50, 53.00000000000000000, #108 ) ;
#12 = PERSON_AND_ORGANIZATION ( #43, #37 ) ;
#13 = DIRECTION ( 'NONE',  ( 0.000000000000000000, 0.000000000000000000, -1.000000000000000000 ) ) ;
#14 = FACE_OUTER_BOUND ( 'NONE', #74, .T. ) ;
#15 = CYLINDRICAL_SURFACE ( 'NONE', #247, 15.00000000000000000 ) ;
#16 = EDGE_CURVE ( 'NONE', #150, #4, #187, .T. ) ;
#17 = DIRECTION ( 'NONE',  ( 1.000000000000000000, 0.000000000000000000, 0.000000000000000000 ) ) ;
#18 = FACE_OUTER_BOUND ( 'NONE', #5, .T. ) ;
#19 = CLOSED_SHELL ( 'NONE', ( #1, #210, #39, #215, #46, #83, #95, #204 ) ) ;
#20 = CARTESIAN_POINT ( 'NONE',  ( 4.898587196589415787E-16, 0.000000000000000000, 4.000000000000001776 ) ) ;
#21 = EDGE_CURVE ( 'NONE', #144, #220, #90, .T. ) ;
#22 = ORIENTED_EDGE ( 'NONE', *, *, #186, .F. ) ;
#23 = PERSON_AND_ORGANIZATION ( #43, #37 ) ;
#24 = ORIENTED_EDGE ( 'NONE', *, *, #273, .F. ) ;
#25 = FACE_OUTER_BOUND ( 'NONE', #147, .T. ) ;
#26 = EDGE_LOOP ( 'NONE', ( #53, #28, #166, #9 ) ) ;
#27 = EDGE_CURVE ( 'NONE', #220, #118, #84, .T. ) ;
#28 = ORIENTED_EDGE ( 'NONE', *, *, #91, .T. ) ;
#29 = DATE_TIME_ROLE ( 'creation_date' ) ;
#30 = CARTESIAN_POINT ( 'NONE',  ( 0.000000000000000000, -0.9999999999999991118, 0.000000000000000000 ) ) ;
#31 = PERSON_AND_ORGANIZATION ( #43, #37 ) ;
#32 = UNCERTAINTY_MEASURE_WITH_UNIT (LENGTH_MEASURE( 1.000000000000000082E-05 ), #148, 'distance_accuracy_value', 'NONE');
#33 = DIRECTION ( 'NONE',  ( -0.000000000000000000, -1.000000000000000000, -0.000000000000000000 ) ) ;
#34 = CALENDAR_DATE ( 2024, 14, 8 ) ;
#35 = DIRECTION ( 'NONE',  ( 0.000000000000000000, 0.000000000000000000, -1.000000000000000000 ) ) ;
#36 = CIRCLE ( 'NONE', #181, 15.00000000000000000 ) ;
#37 = ORGANIZATION ( 'UNSPECIFIED', 'UNSPECIFIED', '' ) ;
#38 = COORDINATED_UNIVERSAL_TIME_OFFSET ( 1, 0, .AHEAD. ) ;
#39 = ADVANCED_FACE ( 'NONE', ( #109 ), #288, .T. ) ;
#40 = DIRECTION ( 'NONE',  ( 0.000000000000000000, -1.000000000000000000, -0.000000000000000000 ) ) ;
#41 = AXIS2_PLACEMENT_3D ( 'NONE', #214, #165, #75 ) ;
#42 = DIRECTION ( 'NONE',  ( 0.000000000000000000, 0.000000000000000000, -1.000000000000000000 ) ) ;
#43 = PERSON ( 'UNSPECIFIED', 'UNSPECIFIED', 'UNSPECIFIED', ('UNSPECIFIED'), ('UNSPECIFIED'), ('UNSPECIFIED') ) ;
#44 = FACE_OUTER_BOUND ( 'NONE', #99, .T. ) ;
#45 = CYLINDRICAL_SURFACE ( 'NONE', #7, 15.00000000000000000 ) ;
#46 = ADVANCED_FACE ( 'NONE', ( #140 ), #67, .T. ) ;
#47 = EDGE_LOOP ( 'NONE', ( #258, #122, #197, #218, #164 ) ) ;
#48 = CARTESIAN_POINT ( 'NONE',  ( 0.000000000000000000, 0.000000000000000000, 0.000000000000000000 ) ) ;
#49 = ORIENTED_EDGE ( 'NONE', *, *, #133, .F. ) ;
#50 = APPROVAL ( #61, 'UNSPECIFIED' ) ;
#51 = VERTEX_POINT ( 'NONE', #93 ) ;
#52 = AXIS2_PLACEMENT_3D ( 'NONE', #137, #162, #231 ) ;
#53 = ORIENTED_EDGE ( 'NONE', *, *, #273, .T. ) ;
#54 = PRODUCT_DEFINITION_SHAPE ( 'NONE', 'NONE',  #82 ) ;
#55 = ORIENTED_EDGE ( 'NONE', *, *, #248, .F. ) ;
#56 = PERSON_AND_ORGANIZATION ( #43, #37 ) ;
#57 = EDGE_CURVE ( 'NONE', #190, #241, #234, .T. ) ;
#58 = DATE_AND_TIME ( #246, #11 ) ;
#59 = DESIGN_CONTEXT ( 'detailed design', #216, 'design' ) ;
#60 = CALENDAR_DATE ( 2024, 14, 8 ) ;
#61 = APPROVAL_STATUS ( 'not_yet_approved' ) ;
#62 = AXIS2_PLACEMENT_3D ( 'NONE', #48, #263, #238 ) ;
#63 = FACE_OUTER_BOUND ( 'NONE', #100, .T. ) ;
#64 = CARTESIAN_POINT ( 'NONE',  ( 0.000000000000000000, 0.000000000000000000, 0.000000000000000000 ) ) ;
#65 = AXIS2_PLACEMENT_3D ( 'NONE', #295, #279, #88 ) ;
#66 = CIRCLE ( 'NONE', #256, 4.000000000000001776 ) ;
#67 = CYLINDRICAL_SURFACE ( 'NONE', #65, 4.000000000000001776 ) ;
#68 = CARTESIAN_POINT ( 'NONE',  ( 0.000000000000000000, 0.000000000000000000, -15.00000000000000000 ) ) ;
#69 = EDGE_CURVE ( 'NONE', #3, #4, #86, .T. ) ;
#70 = DIRECTION ( 'NONE',  ( -1.000000000000000000, 0.000000000000000000, 0.000000000000000000 ) ) ;
#71 = MANIFOLD_SOLID_BREP ( 'Révolution1', #19 ) ;
#72 = CARTESIAN_POINT ( 'NONE',  ( -9.414472268445278319E-16, 12.00000000000000355, 0.000000000000000000 ) ) ;
#73 = EDGE_CURVE ( 'NONE', #285, #118, #255, .T. ) ;
#74 = EDGE_LOOP ( 'NONE', ( #242, #76 ) ) ;
#75 = DIRECTION ( 'NONE',  ( 0.000000000000000000, 0.000000000000000000, -1.000000000000000000 ) ) ;
#76 = ORIENTED_EDGE ( 'NONE', *, *, #186, .T. ) ;
#77 = ORIENTED_EDGE ( 'NONE', *, *, #21, .F. ) ;
#78 = APPROVAL_PERSON_ORGANIZATION ( #31, #245, #129 ) ;
#79 = AXIS2_PLACEMENT_3D ( 'NONE', #112, #111, #42 ) ;
#80 = CC_DESIGN_APPROVAL ( #174, ( #116 ) ) ;
#81 = ORIENTED_EDGE ( 'NONE', *, *, #233, .F. ) ;
#82 = PRODUCT_DEFINITION ( 'UNKNOWN', '', #102, #59 ) ;
#83 = ADVANCED_FACE ( 'NONE', ( #14, #160 ), #110, .T. ) ;
#84 = LINE ( 'NONE', #223, #260 ) ;
#85 = COORDINATED_UNIVERSAL_TIME_OFFSET ( 1, 0, .AHEAD. ) ;
#86 = CIRCLE ( 'NONE', #239, 15.37500000000000000 ) ;
#87 = DIRECTION ( 'NONE',  ( -0.000000000000000000, -1.000000000000000000, -0.000000000000000000 ) ) ;
#88 = DIRECTION ( 'NONE',  ( 0.000000000000000000, 0.000000000000000000, -1.000000000000000000 ) ) ;
#89 = DIRECTION ( 'NONE',  ( -0.000000000000000000, -1.000000000000000000, -0.000000000000000000 ) ) ;
#90 = CIRCLE ( 'NONE', #290, 4.000000000000001776 ) ;
#91 = EDGE_CURVE ( 'NONE', #144, #285, #275, .T. ) ;
#92 = CARTESIAN_POINT ( 'NONE',  ( 0.000000000000000000, -3.374999999999996891, 0.000000000000000000 ) ) ;
#93 = CARTESIAN_POINT ( 'NONE',  ( 0.000000000000000000, -1.000000000000000000, -15.00000000000000000 ) ) ;
#94 =( NAMED_UNIT ( * ) PLANE_ANGLE_UNIT ( ) SI_UNIT ( $, .RADIAN. ) );
#95 = ADVANCED_FACE ( 'NONE', ( #18 ), #15, .T. ) ;
#96 = DIRECTION ( 'NONE',  ( -1.000000000000000000, 0.000000000000000000, 0.000000000000000000 ) ) ;
#97 = ORIENTED_EDGE ( 'NONE', *, *, #27, .T. ) ;
#98 = CARTESIAN_POINT ( 'NONE',  ( 0.000000000000000000, -20.99999999999999645, 0.000000000000000000 ) ) ;
#99 = EDGE_LOOP ( 'NONE', ( #283, #171, #81, #55 ) ) ;
#100 = EDGE_LOOP ( 'NONE', ( #192, #119 ) ) ;
#101 = DIRECTION ( 'NONE',  ( 0.000000000000000000, 0.000000000000000000, -1.000000000000000000 ) ) ;
#102 = PRODUCT_DEFINITION_FORMATION_WITH_SPECIFIED_SOURCE ( 'ANY', '', #222, .NOT_KNOWN. ) ;
#103 = ORIENTED_EDGE ( 'NONE', *, *, #233, .T. ) ;
#104 = APPROVAL_DATE_TIME ( #153, #174 ) ;
#105 = CC_DESIGN_DATE_AND_TIME_ASSIGNMENT ( #292, #29, ( #82 ) ) ;
#106 = COORDINATED_UNIVERSAL_TIME_OFFSET ( 1, 0, .AHEAD. ) ;
#107 = PERSON_AND_ORGANIZATION_ROLE ( 'classification_officer' ) ;
#108 = COORDINATED_UNIVERSAL_TIME_OFFSET ( 1, 0, .AHEAD. ) ;
#109 = FACE_OUTER_BOUND ( 'NONE', #26, .T. ) ;
#110 = PLANE ( 'NONE',  #79 ) ;
#111 = DIRECTION ( 'NONE',  ( 0.000000000000000000, -1.000000000000000000, -0.000000000000000000 ) ) ;
#112 = CARTESIAN_POINT ( 'NONE',  ( -7.228014483236689653E-17, -0.9999999999999995559, 0.000000000000000000 ) ) ;
#113 = CARTESIAN_POINT ( 'NONE',  ( 0.000000000000000000, -20.99999999999999645, 0.000000000000000000 ) ) ;
#114 = LOCAL_TIME ( 10, 50, 53.00000000000000000, #85 ) ;
#115 = AXIS2_PLACEMENT_3D ( 'NONE', #92, #135, #17 ) ;
#116 = SECURITY_CLASSIFICATION ( '', '', #176 ) ;
#117 = DIRECTION ( 'NONE',  ( -0.000000000000000000, -1.000000000000000000, -0.000000000000000000 ) ) ;
#118 = VERTEX_POINT ( 'NONE', #232 ) ;
#119 = ORIENTED_EDGE ( 'NONE', *, *, #73, .T. ) ;
#120 = AXIS2_PLACEMENT_3D ( 'NONE', #180, #33, #35 ) ;
#121 = DIRECTION ( 'NONE',  ( 0.000000000000000000, 0.000000000000000000, -1.000000000000000000 ) ) ;
#122 = ORIENTED_EDGE ( 'NONE', *, *, #248, .T. ) ;
#123 = CARTESIAN_POINT ( 'NONE',  ( 0.000000000000000000, 0.000000000000000000, 0.000000000000000000 ) ) ;
#124 = SPHERICAL_SURFACE ( 'NONE', #145, 15.37500000000000000 ) ;
#125 = PERSON_AND_ORGANIZATION ( #43, #37 ) ;
#126 = AXIS2_PLACEMENT_3D ( 'NONE', #169, #195, #6 ) ;
#127 = DATE_AND_TIME ( #60, #209 ) ;
#128 = ADVANCED_BREP_SHAPE_REPRESENTATION ( 'AB25', ( #71, #62 ), #286 ) ;
#129 = APPROVAL_ROLE ( '' ) ;
#130 = APPROVAL_DATE_TIME ( #127, #245 ) ;
#131 = AXIS2_PLACEMENT_3D ( 'NONE', #206, #89, #184 ) ;
#132 = PERSON_AND_ORGANIZATION ( #43, #37 ) ;
#133 = EDGE_CURVE ( 'NONE', #194, #150, #267, .T. ) ;
#134 = CARTESIAN_POINT ( 'NONE',  ( 0.000000000000000000, 0.000000000000000000, 0.000000000000000000 ) ) ;
#135 = DIRECTION ( 'NONE',  ( -0.000000000000000000, 0.000000000000000000, 1.000000000000000000 ) ) ;
#136 = AXIS2_PLACEMENT_3D ( 'NONE', #249, #40, #173 ) ;
#137 = CARTESIAN_POINT ( 'NONE',  ( 0.000000000000000000, 0.000000000000000000, 0.000000000000000000 ) ) ;
#138 = CC_DESIGN_DATE_AND_TIME_ASSIGNMENT ( #269, #151, ( #116 ) ) ;
#139 = AXIS2_PLACEMENT_3D ( 'NONE', #252, #300, #70 ) ;
#140 = FACE_OUTER_BOUND ( 'NONE', #213, .T. ) ;
#141 = ORIENTED_EDGE ( 'NONE', *, *, #152, .T. ) ;
#142 = ORIENTED_EDGE ( 'NONE', *, *, #179, .F. ) ;
#143 = MECHANICAL_CONTEXT ( 'NONE', #8, 'mechanical' ) ;
#144 = VERTEX_POINT ( 'NONE', #161 ) ;
#145 = AXIS2_PLACEMENT_3D ( 'NONE', #257, #2, #96 ) ;
#146 = DIRECTION ( 'NONE',  ( 0.000000000000000000, 0.000000000000000000, -1.000000000000000000 ) ) ;
#147 = EDGE_LOOP ( 'NONE', ( #142, #240, #168, #49 ) ) ;
#148 =( LENGTH_UNIT ( ) NAMED_UNIT ( * ) SI_UNIT ( .MILLI., .METRE. ) );
#149 = DIRECTION ( 'NONE',  ( 0.000000000000000000, 0.000000000000000000, -1.000000000000000000 ) ) ;
#150 = VERTEX_POINT ( 'NONE', #68 ) ;
#151 = DATE_TIME_ROLE ( 'classification_date' ) ;
#152 = EDGE_CURVE ( 'NONE', #150, #51, #211, .T. ) ;
#153 = DATE_AND_TIME ( #221, #114 ) ;
#154 = CARTESIAN_POINT ( 'NONE',  ( 0.000000000000000000, 0.000000000000000000, 0.000000000000000000 ) ) ;
#155 = PERSON_AND_ORGANIZATION ( #43, #37 ) ;
#156 = CIRCLE ( 'NONE', #126, 4.000000000000001776 ) ;
#157 = PLANE ( 'NONE',  #136 ) ;
#158 = CC_DESIGN_PERSON_AND_ORGANIZATION_ASSIGNMENT ( #23, #266, ( #222 ) ) ;
#159 = CARTESIAN_POINT ( 'NONE',  ( 1.836970198721029589E-15, 0.000000000000000000, 15.00000000000000000 ) ) ;
#160 = FACE_BOUND ( 'NONE', #262, .T. ) ;
#161 = CARTESIAN_POINT ( 'NONE',  ( 4.898587196589415787E-16, -0.9999999999999991118, 4.000000000000001776 ) ) ;
#162 = DIRECTION ( 'NONE',  ( -0.000000000000000000, -1.000000000000000000, -0.000000000000000000 ) ) ;
#163 = CIRCLE ( 'NONE', #205, 15.00000000000000000 ) ;
#164 = ORIENTED_EDGE ( 'NONE', *, *, #152, .F. ) ;
#165 = DIRECTION ( 'NONE',  ( -0.000000000000000000, -1.000000000000000000, -0.000000000000000000 ) ) ;
#166 = ORIENTED_EDGE ( 'NONE', *, *, #264, .F. ) ;
#167 =( NAMED_UNIT ( * ) SI_UNIT ( $, .STERADIAN. ) SOLID_ANGLE_UNIT ( ) );
#168 = ORIENTED_EDGE ( 'NONE', *, *, #16, .F. ) ;
#169 = CARTESIAN_POINT ( 'NONE',  ( 0.000000000000000000, -0.9999999999999991118, 0.000000000000000000 ) ) ;
#170 = APPROVAL_PERSON_ORGANIZATION ( #155, #174, #224 ) ;
#171 = ORIENTED_EDGE ( 'NONE', *, *, #179, .T. ) ;
#172 = ORIENTED_EDGE ( 'NONE', *, *, #73, .F. ) ;
#173 = DIRECTION ( 'NONE',  ( 0.000000000000000000, 0.000000000000000000, -1.000000000000000000 ) ) ;
#174 = APPROVAL ( #202, 'UNSPECIFIED' ) ;
#175 = PERSON_AND_ORGANIZATION_ROLE ( 'creator' ) ;
#176 = SECURITY_CLASSIFICATION_LEVEL ( 'unclassified' ) ;
#177 = SHAPE_DEFINITION_REPRESENTATION ( #54, #128 ) ;
#178 = APPROVAL_DATE_TIME ( #58, #50 ) ;
#179 = EDGE_CURVE ( 'NONE', #3, #194, #199, .T. ) ;
#180 = CARTESIAN_POINT ( 'NONE',  ( 0.000000000000000000, 0.000000000000000000, 0.000000000000000000 ) ) ;
#181 = AXIS2_PLACEMENT_3D ( 'NONE', #123, #284, #146 ) ;
#182 = DIRECTION ( 'NONE',  ( 0.000000000000000000, 0.000000000000000000, -1.000000000000000000 ) ) ;
#183 = DIRECTION ( 'NONE',  ( -0.000000000000000000, -1.000000000000000000, -0.000000000000000000 ) ) ;
#184 = DIRECTION ( 'NONE',  ( 0.000000000000000000, 0.000000000000000000, -1.000000000000000000 ) ) ;
#185 = FACE_OUTER_BOUND ( 'NONE', #47, .T. ) ;
#186 = EDGE_CURVE ( 'NONE', #241, #51, #217, .T. ) ;
#187 = CIRCLE ( 'NONE', #120, 15.00000000000000000 ) ;
#188 = CARTESIAN_POINT ( 'NONE',  ( 15.00000000000000000, 0.000000000000000000, -1.836970198721029589E-15 ) ) ;
#189 = CC_DESIGN_PERSON_AND_ORGANIZATION_ASSIGNMENT ( #132, #107, ( #116 ) ) ;
#190 = VERTEX_POINT ( 'NONE', #251 ) ;
#191 = DIRECTION ( 'NONE',  ( -0.000000000000000000, -1.000000000000000000, -0.000000000000000000 ) ) ;
#192 = ORIENTED_EDGE ( 'NONE', *, *, #264, .T. ) ;
#193 = CARTESIAN_POINT ( 'NONE',  ( 0.000000000000000000, -0.9999999999999991118, -4.000000000000001776 ) ) ;
#194 = VERTEX_POINT ( 'NONE', #253 ) ;
#195 = DIRECTION ( 'NONE',  ( -0.000000000000000000, -1.000000000000000000, -0.000000000000000000 ) ) ;
#196 = LOCAL_TIME ( 10, 50, 53.00000000000000000, #244 ) ;
#197 = ORIENTED_EDGE ( 'NONE', *, *, #57, .T. ) ;
#198 = PERSON_AND_ORGANIZATION_ROLE ( 'design_supplier' ) ;
#199 = CIRCLE ( 'NONE', #115, 15.37500000000000000 ) ;
#200 = CC_DESIGN_PERSON_AND_ORGANIZATION_ASSIGNMENT ( #56, #175, ( #102 ) ) ;
#201 = DIRECTION ( 'NONE',  ( -0.000000000000000000, -1.000000000000000000, -0.000000000000000000 ) ) ;
#202 = APPROVAL_STATUS ( 'not_yet_approved' ) ;
#203 = CARTESIAN_POINT ( 'NONE',  ( 0.000000000000000000, -3.374999999999996891, 0.000000000000000000 ) ) ;
#204 = ADVANCED_FACE ( 'NONE', ( #44 ), #293, .T. ) ;
#205 = AXIS2_PLACEMENT_3D ( 'NONE', #236, #287, #101 ) ;
#206 = CARTESIAN_POINT ( 'NONE',  ( 0.000000000000000000, -1.000000000000000000, 0.000000000000000000 ) ) ;
#207 = DIRECTION ( 'NONE',  ( -0.000000000000000000, -1.000000000000000000, -0.000000000000000000 ) ) ;
#208 = DIRECTION ( 'NONE',  ( -1.224646799147353207E-16, 0.000000000000000000, -1.000000000000000000 ) ) ;
#209 = LOCAL_TIME ( 10, 50, 53.00000000000000000, #106 ) ;
#210 = ADVANCED_FACE ( 'NONE', ( #185 ), #45, .T. ) ;
#211 = LINE ( 'NONE', #298, #261 ) ;
#212 = CARTESIAN_POINT ( 'NONE',  ( 1.836970198721029589E-15, -1.000000000000000000, 15.00000000000000000 ) ) ;
#213 = EDGE_LOOP ( 'NONE', ( #237, #259, #97, #172 ) ) ;
#214 = CARTESIAN_POINT ( 'NONE',  ( 0.000000000000000000, 0.000000000000000000, 0.000000000000000000 ) ) ;
#215 = ADVANCED_FACE ( 'NONE', ( #63 ), #157, .T. ) ;
#216 = APPLICATION_CONTEXT ( 'configuration controlled 3d designs of mechanical parts and assemblies' ) ;
#217 = CIRCLE ( 'NONE', #131, 15.00000000000000000 ) ;
#218 = ORIENTED_EDGE ( 'NONE', *, *, #294, .F. ) ;
#219 = ORIENTED_EDGE ( 'NONE', *, *, #57, .F. ) ;
#220 = VERTEX_POINT ( 'NONE', #193 ) ;
#221 = CALENDAR_DATE ( 2024, 14, 8 ) ;
#222 = PRODUCT ( 'AB25', 'AB25', '', ( #143 ) ) ;
#223 = CARTESIAN_POINT ( 'NONE',  ( 0.000000000000000000, 0.000000000000000000, -4.000000000000001776 ) ) ;
#224 = APPROVAL_ROLE ( '' ) ;
#225 = LOCAL_TIME ( 10, 50, 53.00000000000000000, #38 ) ;
#226 = PERSON_AND_ORGANIZATION ( #43, #37 ) ;
#227 = CC_DESIGN_PERSON_AND_ORGANIZATION_ASSIGNMENT ( #125, #198, ( #102 ) ) ;
#228 = DIRECTION ( 'NONE',  ( -0.000000000000000000, -1.000000000000000000, -0.000000000000000000 ) ) ;
#229 = CC_DESIGN_APPROVAL ( #245, ( #102 ) ) ;
#230 = AXIS2_PLACEMENT_3D ( 'NONE', #113, #183, #277 ) ;
#231 = DIRECTION ( 'NONE',  ( 0.000000000000000000, 0.000000000000000000, -1.000000000000000000 ) ) ;
#232 = CARTESIAN_POINT ( 'NONE',  ( 0.000000000000000000, -20.99999999999999645, -4.000000000000001776 ) ) ;
#233 = EDGE_CURVE ( 'NONE', #190, #194, #299, .T. ) ;
#234 = LINE ( 'NONE', #159, #235 ) ;
#235 = VECTOR ( 'NONE', #228, 1000.000000000000000 ) ;
#236 = CARTESIAN_POINT ( 'NONE',  ( 0.000000000000000000, -1.000000000000000000, 0.000000000000000000 ) ) ;
#237 = ORIENTED_EDGE ( 'NONE', *, *, #91, .F. ) ;
#238 = DIRECTION ( 'NONE',  ( 1.000000000000000000, 0.000000000000000000, 0.000000000000000000 ) ) ;
#239 = AXIS2_PLACEMENT_3D ( 'NONE', #203, #208, #280 ) ;
#240 = ORIENTED_EDGE ( 'NONE', *, *, #69, .T. ) ;
#241 = VERTEX_POINT ( 'NONE', #212 ) ;
#242 = ORIENTED_EDGE ( 'NONE', *, *, #294, .T. ) ;
#243 = APPLICATION_PROTOCOL_DEFINITION ( 'international standard', 'config_control_design', 1994, #216 ) ;
#244 = COORDINATED_UNIVERSAL_TIME_OFFSET ( 1, 0, .AHEAD. ) ;
#245 = APPROVAL ( #270, 'UNSPECIFIED' ) ;
#246 = CALENDAR_DATE ( 2024, 14, 8 ) ;
#247 = AXIS2_PLACEMENT_3D ( 'NONE', #64, #117, #182 ) ;
#248 = EDGE_CURVE ( 'NONE', #4, #190, #36, .T. ) ;
#249 = CARTESIAN_POINT ( 'NONE',  ( 0.000000000000000000, -20.99999999999999645, 0.000000000000000000 ) ) ;
#250 = DIRECTION ( 'NONE',  ( -0.000000000000000000, -1.000000000000000000, -0.000000000000000000 ) ) ;
#251 = CARTESIAN_POINT ( 'NONE',  ( 1.836970198721029589E-15, 0.000000000000000000, 15.00000000000000000 ) ) ;
#252 = CARTESIAN_POINT ( 'NONE',  ( 0.000000000000000000, -3.374999999999996891, 0.000000000000000000 ) ) ;
#253 = CARTESIAN_POINT ( 'NONE',  ( -15.00000000000000000, 0.000000000000000000, 0.000000000000000000 ) ) ;
#254 = APPROVAL_PERSON_ORGANIZATION ( #12, #50, #10 ) ;
#255 = CIRCLE ( 'NONE', #230, 4.000000000000001776 ) ;
#256 = AXIS2_PLACEMENT_3D ( 'NONE', #98, #191, #121 ) ;
#257 = CARTESIAN_POINT ( 'NONE',  ( 0.000000000000000000, -3.374999999999996891, 0.000000000000000000 ) ) ;
#258 = ORIENTED_EDGE ( 'NONE', *, *, #16, .T. ) ;
#259 = ORIENTED_EDGE ( 'NONE', *, *, #21, .T. ) ;
#260 = VECTOR ( 'NONE', #289, 1000.000000000000000 ) ;
#261 = VECTOR ( 'NONE', #207, 1000.000000000000000 ) ;
#262 = EDGE_LOOP ( 'NONE', ( #24, #77 ) ) ;
#263 = DIRECTION ( 'NONE',  ( 0.000000000000000000, 0.000000000000000000, 1.000000000000000000 ) ) ;
#264 = EDGE_CURVE ( 'NONE', #118, #285, #66, .T. ) ;
#265 = ORIENTED_EDGE ( 'NONE', *, *, #133, .T. ) ;
#266 = PERSON_AND_ORGANIZATION_ROLE ( 'design_owner' ) ;
#267 = CIRCLE ( 'NONE', #52, 15.00000000000000000 ) ;
#268 = CALENDAR_DATE ( 2024, 14, 8 ) ;
#269 = DATE_AND_TIME ( #268, #196 ) ;
#270 = APPROVAL_STATUS ( 'not_yet_approved' ) ;
#271 = CC_DESIGN_SECURITY_CLASSIFICATION ( #116, ( #102 ) ) ;
#272 = DIRECTION ( 'NONE',  ( -0.000000000000000000, -1.000000000000000000, -0.000000000000000000 ) ) ;
#273 = EDGE_CURVE ( 'NONE', #220, #144, #156, .T. ) ;
#274 = DIRECTION ( 'NONE',  ( 0.000000000000000000, 0.000000000000000000, -1.000000000000000000 ) ) ;
#275 = LINE ( 'NONE', #20, #278 ) ;
#276 = PRODUCT_RELATED_PRODUCT_CATEGORY ( 'detail', '', ( #222 ) ) ;
#277 = DIRECTION ( 'NONE',  ( 0.000000000000000000, 0.000000000000000000, -1.000000000000000000 ) ) ;
#278 = VECTOR ( 'NONE', #250, 1000.000000000000000 ) ;
#279 = DIRECTION ( 'NONE',  ( -0.000000000000000000, -1.000000000000000000, -0.000000000000000000 ) ) ;
#280 = DIRECTION ( 'NONE',  ( -1.000000000000000000, 0.000000000000000000, 1.224646799147353207E-16 ) ) ;
#281 = CC_DESIGN_PERSON_AND_ORGANIZATION_ASSIGNMENT ( #226, #291, ( #82 ) ) ;
#282 = APPLICATION_PROTOCOL_DEFINITION ( 'international standard', 'config_control_design', 1994, #8 ) ;
#283 = ORIENTED_EDGE ( 'NONE', *, *, #69, .F. ) ;
#284 = DIRECTION ( 'NONE',  ( -0.000000000000000000, -1.000000000000000000, -0.000000000000000000 ) ) ;
#285 = VERTEX_POINT ( 'NONE', #301 ) ;
#286 =( GEOMETRIC_REPRESENTATION_CONTEXT ( 3 ) GLOBAL_UNCERTAINTY_ASSIGNED_CONTEXT ( ( #32 ) ) GLOBAL_UNIT_ASSIGNED_CONTEXT ( ( #148, #94, #167 ) ) REPRESENTATION_CONTEXT ( 'NONE', 'WORKASPACE' ) );
#287 = DIRECTION ( 'NONE',  ( -0.000000000000000000, -1.000000000000000000, -0.000000000000000000 ) ) ;
#288 = CYLINDRICAL_SURFACE ( 'NONE', #297, 4.000000000000001776 ) ;
#289 = DIRECTION ( 'NONE',  ( -0.000000000000000000, -1.000000000000000000, -0.000000000000000000 ) ) ;
#290 = AXIS2_PLACEMENT_3D ( 'NONE', #30, #272, #13 ) ;
#291 = PERSON_AND_ORGANIZATION_ROLE ( 'creator' ) ;
#292 = DATE_AND_TIME ( #34, #225 ) ;
#293 = SPHERICAL_SURFACE ( 'NONE', #139, 15.37500000000000000 ) ;
#294 = EDGE_CURVE ( 'NONE', #51, #241, #163, .T. ) ;
#295 = CARTESIAN_POINT ( 'NONE',  ( 0.000000000000000000, 0.000000000000000000, 0.000000000000000000 ) ) ;
#296 = CC_DESIGN_APPROVAL ( #50, ( #82 ) ) ;
#297 = AXIS2_PLACEMENT_3D ( 'NONE', #154, #201, #149 ) ;
#298 = CARTESIAN_POINT ( 'NONE',  ( 0.000000000000000000, 0.000000000000000000, -15.00000000000000000 ) ) ;
#299 = CIRCLE ( 'NONE', #41, 15.00000000000000000 ) ;
#300 = DIRECTION ( 'NONE',  ( -0.000000000000000000, -0.000000000000000000, -1.000000000000000000 ) ) ;
#301 = CARTESIAN_POINT ( 'NONE',  ( 4.898587196589415787E-16, -20.99999999999999645, 4.000000000000001776 ) ) ;
ENDSEC;
END-ISO-10303-21;
