ISO-10303-21;
HEADER;
FILE_DESCRIPTION(('CATIA V5 STEP Exchange'),'2;1');

FILE_NAME('C:\\Users\\maxime\\Desktop\\bague  14.9.stp','2024-08-03T11:26:46+00:00',('none'),('none'),'CATIA Version 5 Release 17 (IN-10)','CATIA V5 STEP AP203','none');

FILE_SCHEMA(('CONFIG_CONTROL_DESIGN'));

ENDSEC;
/* file written by CATIA V5R17 */
DATA;
#5=PRODUCT('bague  14.9','','',(#2)) ;
#1=APPLICATION_CONTEXT('configuration controlled 3D design of mechanical parts and assemblies') ;
#14=PRODUCT_DEFINITION(' ',' ',#6,#3) ;
#16=SECURITY_CLASSIFICATION(' ',' ',#15) ;
#15=SECURITY_CLASSIFICATION_LEVEL('unclassified') ;
#47=CARTESIAN_POINT(' ',(0.,0.,0.)) ;
#52=CARTESIAN_POINT('Axis2P3D Location',(0.,11.,0.)) ;
#57=CARTESIAN_POINT('Axis2P3D Location',(0.,22.,0.)) ;
#61=CARTESIAN_POINT('Vertex',(4.00320324735,22.,7.32781439178)) ;
#63=CARTESIAN_POINT('Vertex',(-4.00320324735,22.,-7.32781439178)) ;
#66=CARTESIAN_POINT('Line Origine',(4.00320324735,17.,7.32781439178)) ;
#70=CARTESIAN_POINT('Vertex',(4.00320324735,12.,7.32781439178)) ;
#73=CARTESIAN_POINT('Axis2P3D Location',(0.,12.,0.)) ;
#77=CARTESIAN_POINT('Vertex',(-4.00320324735,12.,-7.32781439178)) ;
#80=CARTESIAN_POINT('Line Origine',(-4.00320324735,17.,-7.32781439178)) ;
#92=CARTESIAN_POINT('Axis2P3D Location',(0.,22.,0.)) ;
#97=CARTESIAN_POINT('Axis2P3D Location',(0.,12.,0.)) ;
#109=CARTESIAN_POINT('Axis2P3D Location',(-2.29217152217E-014,-11.9037785164,-1.67471972064E-014)) ;
#114=CARTESIAN_POINT('Line Origine',(-3.43332242092,0.5,-6.28465360874)) ;
#118=CARTESIAN_POINT('Vertex',(-3.5717202626,1.,-6.53799008608)) ;
#120=CARTESIAN_POINT('Vertex',(-3.29492379736,0.,-6.03131755855)) ;
#123=CARTESIAN_POINT('Axis2P3D Location',(-1.7763568394E-015,-1.06581410364E-014,-8.881784197E-016)) ;
#127=CARTESIAN_POINT('Vertex',(3.29492379883,0.,6.03131755774)) ;
#130=CARTESIAN_POINT('Line Origine',(3.43332203072,0.5,6.28465382191)) ;
#134=CARTESIAN_POINT('Vertex',(3.5717202626,1.,6.53799008608)) ;
#137=CARTESIAN_POINT('Axis2P3D Location',(-2.20881053462E-029,1.,4.4408920985E-016)) ;
#149=CARTESIAN_POINT('Axis2P3D Location',(4.67316088631E-014,-11.9037785164,-4.58434304434E-014)) ;
#154=CARTESIAN_POINT('Axis2P3D Location',(4.4408920985E-015,1.06581410364E-014,-3.5527136788E-015)) ;
#159=CARTESIAN_POINT('Axis2P3D Location',(8.881784197E-016,1.,3.15544362088E-029)) ;
#171=CARTESIAN_POINT('Axis2P3D Location',(0.,0.,4.)) ;
#180=CARTESIAN_POINT('Axis2P3D Location',(1.95399252334E-014,0.,-4.08562073062E-014)) ;
#184=CARTESIAN_POINT('Vertex',(-2.05610038076,0.,-3.76366651476)) ;
#186=CARTESIAN_POINT('Vertex',(2.0561003863,0.,3.76366651173)) ;
#189=CARTESIAN_POINT('Axis2P3D Location',(-1.42108547152E-014,0.,-2.48689957516E-014)) ;
#199=CARTESIAN_POINT('Axis2P3D Location',(-2.20637123052E-013,7.42820323027,5.80837782547E-013)) ;
#204=CARTESIAN_POINT('Line Origine',(-1.98690127036,0.25,-3.63699837965)) ;
#208=CARTESIAN_POINT('Vertex',(-1.91770215442,0.5,-3.51033024756)) ;
#211=CARTESIAN_POINT('Axis2P3D Location',(8.88178419708E-016,0.5,-6.66133814795E-016)) ;
#215=CARTESIAN_POINT('Vertex',(1.91770215442,0.5,3.51033024756)) ;
#218=CARTESIAN_POINT('Line Origine',(1.98690127036,0.25,3.63699837965)) ;
#230=CARTESIAN_POINT('Axis2P3D Location',(-6.0215292003E-013,7.42820323027,8.14670045212E-013)) ;
#235=CARTESIAN_POINT('Axis2P3D Location',(8.88178419678E-016,0.5,-6.66133814745E-016)) ;
#247=CARTESIAN_POINT('Axis2P3D Location',(0.,22.,8.35)) ;
#256=CARTESIAN_POINT('Axis2P3D Location',(2.22044604925E-015,22.,-2.48689957516E-014)) ;
#260=CARTESIAN_POINT('Vertex',(2.15741492372,22.,3.94912152851)) ;
#262=CARTESIAN_POINT('Vertex',(-2.15741487501,22.,-3.94912155512)) ;
#265=CARTESIAN_POINT('Axis2P3D Location',(8.881784197E-015,22.,-2.13162820728E-014)) ;
#275=CARTESIAN_POINT('Axis2P3D Location',(0.,11.,0.)) ;
#280=CARTESIAN_POINT('Axis2P3D Location',(0.,21.7113248654,0.)) ;
#284=CARTESIAN_POINT('Vertex',(1.91770215442,21.7113248654,3.51033024756)) ;
#286=CARTESIAN_POINT('Vertex',(-1.91770215442,21.7113248654,-3.51033024756)) ;
#289=CARTESIAN_POINT('Line Origine',(-1.91770215442,11.,-3.51033024756)) ;
#294=CARTESIAN_POINT('Line Origine',(1.91770215442,11.,3.51033024756)) ;
#306=CARTESIAN_POINT('Axis2P3D Location',(0.,21.7113248654,0.)) ;
#318=CARTESIAN_POINT('Axis2P3D Location',(-1.57207580287E-013,19.4019237886,2.52686760405E-013)) ;
#323=CARTESIAN_POINT('Line Origine',(-2.037558531,21.8556624327,-3.72972589244)) ;
#328=CARTESIAN_POINT('Line Origine',(2.03755853907,21.8556624327,3.72972588803)) ;
#340=CARTESIAN_POINT('Axis2P3D Location',(-1.7763568394E-013,19.4019237886,4.09006162272E-013)) ;
#352=CARTESIAN_POINT('Axis2P3D Location',(0.,11.,0.)) ;
#357=CARTESIAN_POINT('Line Origine',(-3.5717202626,6.,-6.53799008608)) ;
#361=CARTESIAN_POINT('Vertex',(-3.5717202626,9.85358983849,-6.53799008608)) ;
#364=CARTESIAN_POINT('Line Origine',(3.5717202626,6.,6.53799008608)) ;
#368=CARTESIAN_POINT('Vertex',(3.5717202626,9.85358983849,6.53799008608)) ;
#371=CARTESIAN_POINT('Axis2P3D Location',(0.,9.85358983849,0.)) ;
#383=CARTESIAN_POINT('Axis2P3D Location',(0.,9.85358983849,0.)) ;
#395=CARTESIAN_POINT('Axis2P3D Location',(0.,11.1,0.)) ;
#400=CARTESIAN_POINT('Line Origine',(-3.39921930004,10.4767949192,-6.22222919214)) ;
#404=CARTESIAN_POINT('Vertex',(-3.22671833749,11.1,-5.9064682982)) ;
#407=CARTESIAN_POINT('Axis2P3D Location',(0.,11.1,0.)) ;
#411=CARTESIAN_POINT('Vertex',(3.22671833749,11.1,5.9064682982)) ;
#414=CARTESIAN_POINT('Line Origine',(3.39921930004,10.4767949192,6.22222919214)) ;
#426=CARTESIAN_POINT('Axis2P3D Location',(0.,11.1,0.)) ;
#438=CARTESIAN_POINT('Axis2P3D Location',(0.,11.4,0.)) ;
#443=CARTESIAN_POINT('Axis2P3D Location',(-3.47583515488,11.4,-6.36247357371)) ;
#447=CARTESIAN_POINT('Vertex',(-3.47583515488,12.,-6.36247357371)) ;
#450=CARTESIAN_POINT('Axis2P3D Location',(0.,12.,0.)) ;
#454=CARTESIAN_POINT('Vertex',(3.47583515488,12.,6.36247357371)) ;
#457=CARTESIAN_POINT('Axis2P3D Location',(3.47583515488,11.4,6.36247357371)) ;
#469=CARTESIAN_POINT('Axis2P3D Location',(0.,12.,0.)) ;
#481=CARTESIAN_POINT('Axis2P3D Location',(0.,12.,7.45)) ;
#53=DIRECTION('Axis2P3D Direction',(0.,1.,0.)) ;
#54=DIRECTION('Axis2P3D XDirection',(0.479425538604,0.,0.87758256189)) ;
#58=DIRECTION('Axis2P3D Direction',(0.,1.,0.)) ;
#67=DIRECTION('Vector Direction',(0.,1.,0.)) ;
#74=DIRECTION('Axis2P3D Direction',(0.,1.,0.)) ;
#81=DIRECTION('Vector Direction',(0.,1.,0.)) ;
#93=DIRECTION('Axis2P3D Direction',(0.,1.,0.)) ;
#98=DIRECTION('Axis2P3D Direction',(0.,1.,0.)) ;
#110=DIRECTION('Axis2P3D Direction',(1.7763568394E-015,1.,1.33226762955E-015)) ;
#111=DIRECTION('Axis2P3D XDirection',(-0.11902248067,1.86264514923E-015,-0.992891559585)) ;
#115=DIRECTION('Vector Direction',(-0.239712796546,0.866025403784,-0.438791266062)) ;
#124=DIRECTION('Axis2P3D Direction',(1.59374973086E-015,1.,-1.91050114891E-016)) ;
#131=DIRECTION('Vector Direction',(0.239712769302,0.866025403784,0.438791280945)) ;
#138=DIRECTION('Axis2P3D Direction',(1.59374973086E-015,1.,-1.91050114891E-016)) ;
#150=DIRECTION('Axis2P3D Direction',(-3.5527136788E-015,1.,3.5527136788E-015)) ;
#151=DIRECTION('Axis2P3D XDirection',(0.479425538604,-1.11758708954E-015,0.87758256189)) ;
#155=DIRECTION('Axis2P3D Direction',(-4.23087927479E-015,1.,2.31133988205E-015)) ;
#160=DIRECTION('Axis2P3D Direction',(-4.23087927479E-015,1.,2.31133988205E-015)) ;
#172=DIRECTION('Axis2P3D Direction',(0.,1.,0.)) ;
#173=DIRECTION('Axis2P3D XDirection',(1.,0.,0.)) ;
#181=DIRECTION('Axis2P3D Direction',(0.,1.,0.)) ;
#190=DIRECTION('Axis2P3D Direction',(0.,1.,0.)) ;
#200=DIRECTION('Axis2P3D Direction',(3.19744231092E-014,-1.,-8.39328606617E-014)) ;
#201=DIRECTION('Axis2P3D XDirection',(-0.47045474835,5.92321157455E-014,-0.882424121245)) ;
#205=DIRECTION('Vector Direction',(-0.239712769302,-0.866025403784,-0.438791280945)) ;
#212=DIRECTION('Axis2P3D Direction',(-5.97415381721E-014,1.,3.18505462737E-014)) ;
#219=DIRECTION('Vector Direction',(0.239712769302,-0.866025403784,0.438791280945)) ;
#231=DIRECTION('Axis2P3D Direction',(8.70414851306E-014,-1.,-1.1768364061E-013)) ;
#232=DIRECTION('Axis2P3D XDirection',(0.479425538604,-6.14672899246E-014,0.87758256189)) ;
#236=DIRECTION('Axis2P3D Direction',(-1.16548784606E-013,1.,6.36708912188E-014)) ;
#248=DIRECTION('Axis2P3D Direction',(0.,1.,0.)) ;
#249=DIRECTION('Axis2P3D XDirection',(1.,0.,0.)) ;
#257=DIRECTION('Axis2P3D Direction',(0.,1.,0.)) ;
#266=DIRECTION('Axis2P3D Direction',(0.,1.,0.)) ;
#276=DIRECTION('Axis2P3D Direction',(0.,1.,0.)) ;
#277=DIRECTION('Axis2P3D XDirection',(0.479425538604,0.,0.87758256189)) ;
#281=DIRECTION('Axis2P3D Direction',(0.,1.,0.)) ;
#290=DIRECTION('Vector Direction',(0.,1.,0.)) ;
#295=DIRECTION('Vector Direction',(0.,1.,0.)) ;
#307=DIRECTION('Axis2P3D Direction',(0.,1.,0.)) ;
#319=DIRECTION('Axis2P3D Direction',(6.76882865607E-014,1.,-1.09224280587E-013)) ;
#320=DIRECTION('Axis2P3D XDirection',(-0.0861622910494,-1.03023193382E-013,-0.996281114747)) ;
#324=DIRECTION('Vector Direction',(-0.415194694009,0.5,-0.760008793414)) ;
#329=DIRECTION('Vector Direction',(0.415194695654,0.5,0.760008792515)) ;
#341=DIRECTION('Axis2P3D Direction',(7.69185074553E-014,1.,-1.76912567147E-013)) ;
#342=DIRECTION('Axis2P3D XDirection',(0.479425538604,1.18401394482E-013,0.87758256189)) ;
#353=DIRECTION('Axis2P3D Direction',(0.,1.,0.)) ;
#354=DIRECTION('Axis2P3D XDirection',(0.479425538604,0.,0.87758256189)) ;
#358=DIRECTION('Vector Direction',(0.,1.,0.)) ;
#365=DIRECTION('Vector Direction',(0.,1.,0.)) ;
#372=DIRECTION('Axis2P3D Direction',(0.,1.,0.)) ;
#384=DIRECTION('Axis2P3D Direction',(0.,1.,0.)) ;
#396=DIRECTION('Axis2P3D Direction',(0.,-1.,0.)) ;
#397=DIRECTION('Axis2P3D XDirection',(0.479425538604,0.,0.87758256189)) ;
#401=DIRECTION('Vector Direction',(-0.239712769302,-0.866025403784,-0.438791280945)) ;
#408=DIRECTION('Axis2P3D Direction',(0.,-1.,0.)) ;
#415=DIRECTION('Vector Direction',(0.239712769302,-0.866025403784,0.438791280945)) ;
#427=DIRECTION('Axis2P3D Direction',(0.,-1.,0.)) ;
#439=DIRECTION('Axis2P3D Direction',(0.,1.,0.)) ;
#440=DIRECTION('Axis2P3D XDirection',(0.479425538604,0.,0.87758256189)) ;
#444=DIRECTION('Axis2P3D Direction',(0.87758256189,0.,-0.479425538604)) ;
#451=DIRECTION('Axis2P3D Direction',(0.,1.,0.)) ;
#458=DIRECTION('Axis2P3D Direction',(-0.87758256189,0.,0.479425538604)) ;
#470=DIRECTION('Axis2P3D Direction',(0.,1.,0.)) ;
#482=DIRECTION('Axis2P3D Direction',(0.,1.,0.)) ;
#483=DIRECTION('Axis2P3D XDirection',(1.,0.,0.)) ;
#48=AXIS2_PLACEMENT_3D(' ',#47,$,$) ;
#55=AXIS2_PLACEMENT_3D('Cylinder Axis2P3D',#52,#53,#54) ;
#59=AXIS2_PLACEMENT_3D('Circle Axis2P3D',#57,#58,$) ;
#75=AXIS2_PLACEMENT_3D('Circle Axis2P3D',#73,#74,$) ;
#94=AXIS2_PLACEMENT_3D('Circle Axis2P3D',#92,#93,$) ;
#99=AXIS2_PLACEMENT_3D('Circle Axis2P3D',#97,#98,$) ;
#112=AXIS2_PLACEMENT_3D('Cone Axis2P3D',#109,#110,#111) ;
#125=AXIS2_PLACEMENT_3D('Circle Axis2P3D',#123,#124,$) ;
#139=AXIS2_PLACEMENT_3D('Circle Axis2P3D',#137,#138,$) ;
#152=AXIS2_PLACEMENT_3D('Cone Axis2P3D',#149,#150,#151) ;
#156=AXIS2_PLACEMENT_3D('Circle Axis2P3D',#154,#155,$) ;
#161=AXIS2_PLACEMENT_3D('Circle Axis2P3D',#159,#160,$) ;
#174=AXIS2_PLACEMENT_3D('Plane Axis2P3D',#171,#172,#173) ;
#182=AXIS2_PLACEMENT_3D('Circle Axis2P3D',#180,#181,$) ;
#191=AXIS2_PLACEMENT_3D('Circle Axis2P3D',#189,#190,$) ;
#202=AXIS2_PLACEMENT_3D('Cone Axis2P3D',#199,#200,#201) ;
#213=AXIS2_PLACEMENT_3D('Circle Axis2P3D',#211,#212,$) ;
#233=AXIS2_PLACEMENT_3D('Cone Axis2P3D',#230,#231,#232) ;
#237=AXIS2_PLACEMENT_3D('Circle Axis2P3D',#235,#236,$) ;
#250=AXIS2_PLACEMENT_3D('Plane Axis2P3D',#247,#248,#249) ;
#258=AXIS2_PLACEMENT_3D('Circle Axis2P3D',#256,#257,$) ;
#267=AXIS2_PLACEMENT_3D('Circle Axis2P3D',#265,#266,$) ;
#278=AXIS2_PLACEMENT_3D('Cylinder Axis2P3D',#275,#276,#277) ;
#282=AXIS2_PLACEMENT_3D('Circle Axis2P3D',#280,#281,$) ;
#308=AXIS2_PLACEMENT_3D('Circle Axis2P3D',#306,#307,$) ;
#321=AXIS2_PLACEMENT_3D('Cone Axis2P3D',#318,#319,#320) ;
#343=AXIS2_PLACEMENT_3D('Cone Axis2P3D',#340,#341,#342) ;
#355=AXIS2_PLACEMENT_3D('Cylinder Axis2P3D',#352,#353,#354) ;
#373=AXIS2_PLACEMENT_3D('Circle Axis2P3D',#371,#372,$) ;
#385=AXIS2_PLACEMENT_3D('Circle Axis2P3D',#383,#384,$) ;
#398=AXIS2_PLACEMENT_3D('Cone Axis2P3D',#395,#396,#397) ;
#409=AXIS2_PLACEMENT_3D('Circle Axis2P3D',#407,#408,$) ;
#428=AXIS2_PLACEMENT_3D('Circle Axis2P3D',#426,#427,$) ;
#441=AXIS2_PLACEMENT_3D('Torus Axis2P3D',#438,#439,#440) ;
#445=AXIS2_PLACEMENT_3D('Circle Axis2P3D',#443,#444,$) ;
#452=AXIS2_PLACEMENT_3D('Circle Axis2P3D',#450,#451,$) ;
#459=AXIS2_PLACEMENT_3D('Circle Axis2P3D',#457,#458,$) ;
#471=AXIS2_PLACEMENT_3D('Circle Axis2P3D',#469,#470,$) ;
#484=AXIS2_PLACEMENT_3D('Plane Axis2P3D',#481,#482,#483) ;
#40=PRODUCT_DEFINITION_SHAPE(' ',' ',#14) ;
#31=APPROVAL_PERSON_ORGANIZATION(#25,#21,#19) ;
#25=PERSON_AND_ORGANIZATION(#22,#23) ;
#22=PERSON(' ',' ',' ',$,$,$) ;
#23=ORGANIZATION(' ',' ',' ') ;
#21=APPROVAL(#20,' ') ;
#20=APPROVAL_STATUS('not_yet_approved') ;
#19=APPROVAL_ROLE('APPROVER') ;
#13=DATE_AND_TIME(#11,#12) ;
#12=LOCAL_TIME(13,26,38.,#10) ;
#10=COORDINATED_UNIVERSAL_TIME_OFFSET(0,0,.AHEAD.) ;
#86=ORIENTED_EDGE('',*,*,#65,.F.) ;
#87=ORIENTED_EDGE('',*,*,#72,.T.) ;
#88=ORIENTED_EDGE('',*,*,#79,.T.) ;
#89=ORIENTED_EDGE('',*,*,#84,.F.) ;
#103=ORIENTED_EDGE('',*,*,#96,.F.) ;
#104=ORIENTED_EDGE('',*,*,#84,.T.) ;
#105=ORIENTED_EDGE('',*,*,#101,.T.) ;
#106=ORIENTED_EDGE('',*,*,#72,.F.) ;
#143=ORIENTED_EDGE('',*,*,#122,.T.) ;
#144=ORIENTED_EDGE('',*,*,#129,.T.) ;
#145=ORIENTED_EDGE('',*,*,#136,.F.) ;
#146=ORIENTED_EDGE('',*,*,#141,.F.) ;
#165=ORIENTED_EDGE('',*,*,#136,.T.) ;
#166=ORIENTED_EDGE('',*,*,#158,.T.) ;
#167=ORIENTED_EDGE('',*,*,#122,.F.) ;
#168=ORIENTED_EDGE('',*,*,#163,.F.) ;
#177=ORIENTED_EDGE('',*,*,#158,.F.) ;
#178=ORIENTED_EDGE('',*,*,#129,.F.) ;
#195=ORIENTED_EDGE('',*,*,#188,.T.) ;
#196=ORIENTED_EDGE('',*,*,#193,.T.) ;
#224=ORIENTED_EDGE('',*,*,#210,.T.) ;
#225=ORIENTED_EDGE('',*,*,#217,.T.) ;
#226=ORIENTED_EDGE('',*,*,#222,.F.) ;
#227=ORIENTED_EDGE('',*,*,#188,.F.) ;
#241=ORIENTED_EDGE('',*,*,#222,.T.) ;
#242=ORIENTED_EDGE('',*,*,#239,.T.) ;
#243=ORIENTED_EDGE('',*,*,#210,.F.) ;
#244=ORIENTED_EDGE('',*,*,#193,.F.) ;
#253=ORIENTED_EDGE('',*,*,#96,.T.) ;
#254=ORIENTED_EDGE('',*,*,#65,.T.) ;
#271=ORIENTED_EDGE('',*,*,#264,.F.) ;
#272=ORIENTED_EDGE('',*,*,#269,.F.) ;
#300=ORIENTED_EDGE('',*,*,#288,.T.) ;
#301=ORIENTED_EDGE('',*,*,#293,.F.) ;
#302=ORIENTED_EDGE('',*,*,#239,.F.) ;
#303=ORIENTED_EDGE('',*,*,#298,.T.) ;
#312=ORIENTED_EDGE('',*,*,#310,.T.) ;
#313=ORIENTED_EDGE('',*,*,#298,.F.) ;
#314=ORIENTED_EDGE('',*,*,#217,.F.) ;
#315=ORIENTED_EDGE('',*,*,#293,.T.) ;
#334=ORIENTED_EDGE('',*,*,#327,.T.) ;
#335=ORIENTED_EDGE('',*,*,#269,.T.) ;
#336=ORIENTED_EDGE('',*,*,#332,.F.) ;
#337=ORIENTED_EDGE('',*,*,#310,.F.) ;
#346=ORIENTED_EDGE('',*,*,#332,.T.) ;
#347=ORIENTED_EDGE('',*,*,#264,.T.) ;
#348=ORIENTED_EDGE('',*,*,#327,.F.) ;
#349=ORIENTED_EDGE('',*,*,#288,.F.) ;
#377=ORIENTED_EDGE('',*,*,#363,.T.) ;
#378=ORIENTED_EDGE('',*,*,#141,.T.) ;
#379=ORIENTED_EDGE('',*,*,#370,.F.) ;
#380=ORIENTED_EDGE('',*,*,#375,.F.) ;
#389=ORIENTED_EDGE('',*,*,#370,.T.) ;
#390=ORIENTED_EDGE('',*,*,#163,.T.) ;
#391=ORIENTED_EDGE('',*,*,#363,.F.) ;
#392=ORIENTED_EDGE('',*,*,#387,.F.) ;
#420=ORIENTED_EDGE('',*,*,#406,.T.) ;
#421=ORIENTED_EDGE('',*,*,#413,.F.) ;
#422=ORIENTED_EDGE('',*,*,#418,.F.) ;
#423=ORIENTED_EDGE('',*,*,#387,.T.) ;
#432=ORIENTED_EDGE('',*,*,#418,.T.) ;
#433=ORIENTED_EDGE('',*,*,#430,.F.) ;
#434=ORIENTED_EDGE('',*,*,#406,.F.) ;
#435=ORIENTED_EDGE('',*,*,#375,.T.) ;
#463=ORIENTED_EDGE('',*,*,#449,.T.) ;
#464=ORIENTED_EDGE('',*,*,#456,.F.) ;
#465=ORIENTED_EDGE('',*,*,#461,.F.) ;
#466=ORIENTED_EDGE('',*,*,#413,.T.) ;
#475=ORIENTED_EDGE('',*,*,#461,.T.) ;
#476=ORIENTED_EDGE('',*,*,#473,.F.) ;
#477=ORIENTED_EDGE('',*,*,#449,.F.) ;
#478=ORIENTED_EDGE('',*,*,#430,.T.) ;
#487=ORIENTED_EDGE('',*,*,#79,.F.) ;
#488=ORIENTED_EDGE('',*,*,#101,.F.) ;
#491=ORIENTED_EDGE('',*,*,#473,.T.) ;
#492=ORIENTED_EDGE('',*,*,#456,.T.) ;
#197=FACE_BOUND('',#194,.T.) ;
#273=FACE_BOUND('',#270,.T.) ;
#493=FACE_BOUND('',#490,.T.) ;
#51=CLOSED_SHELL('Closed Shell',(#91,#108,#148,#170,#198,#229,#246,#274,#305,#317,#339,#351,#382,#394,#425,#437,#468,#480,#494)) ;
#68=VECTOR('Line Direction',#67,1.) ;
#82=VECTOR('Line Direction',#81,1.) ;
#116=VECTOR('Line Direction',#115,1.) ;
#132=VECTOR('Line Direction',#131,1.) ;
#206=VECTOR('Line Direction',#205,1.) ;
#220=VECTOR('Line Direction',#219,1.) ;
#291=VECTOR('Line Direction',#290,1.) ;
#296=VECTOR('Line Direction',#295,1.) ;
#325=VECTOR('Line Direction',#324,1.) ;
#330=VECTOR('Line Direction',#329,1.) ;
#359=VECTOR('Line Direction',#358,1.) ;
#366=VECTOR('Line Direction',#365,1.) ;
#402=VECTOR('Line Direction',#401,1.) ;
#416=VECTOR('Line Direction',#415,1.) ;
#496=ADVANCED_BREP_SHAPE_REPRESENTATION('NONE',(#495),#46) ;
#49=SHAPE_REPRESENTATION(' ',(#48),#46) ;
#91=ADVANCED_FACE('',(#90),#56,.T.) ;
#108=ADVANCED_FACE('',(#107),#56,.T.) ;
#148=ADVANCED_FACE('',(#147),#113,.T.) ;
#170=ADVANCED_FACE('',(#169),#153,.T.) ;
#198=ADVANCED_FACE('',(#179,#197),#175,.F.) ;
#229=ADVANCED_FACE('',(#228),#203,.F.) ;
#246=ADVANCED_FACE('',(#245),#234,.F.) ;
#274=ADVANCED_FACE('',(#255,#273),#251,.T.) ;
#305=ADVANCED_FACE('',(#304),#279,.F.) ;
#317=ADVANCED_FACE('',(#316),#279,.F.) ;
#339=ADVANCED_FACE('',(#338),#322,.F.) ;
#351=ADVANCED_FACE('',(#350),#344,.F.) ;
#382=ADVANCED_FACE('',(#381),#356,.T.) ;
#394=ADVANCED_FACE('',(#393),#356,.T.) ;
#425=ADVANCED_FACE('',(#424),#399,.T.) ;
#437=ADVANCED_FACE('',(#436),#399,.T.) ;
#468=ADVANCED_FACE('',(#467),#442,.F.) ;
#480=ADVANCED_FACE('',(#479),#442,.F.) ;
#494=ADVANCED_FACE('',(#489,#493),#485,.F.) ;
#4=APPLICATION_PROTOCOL_DEFINITION('international standard','config_control_design',1994,#1) ;
#32=APPROVAL_DATE_TIME(#13,#21) ;
#495=MANIFOLD_SOLID_BREP('Corps principal',#51) ;
#11=CALENDAR_DATE(2024,3,8) ;
#30=CC_DESIGN_APPROVAL(#21,(#16,#6,#14)) ;
#18=CC_DESIGN_DATE_AND_TIME_ASSIGNMENT(#13,#17,(#16)) ;
#29=CC_DESIGN_DATE_AND_TIME_ASSIGNMENT(#13,#28,(#14)) ;
#17=DATE_TIME_ROLE('classification_date') ;
#28=DATE_TIME_ROLE('creation_date') ;
#27=CC_DESIGN_PERSON_AND_ORGANIZATION_ASSIGNMENT(#25,#26,(#16)) ;
#33=CC_DESIGN_PERSON_AND_ORGANIZATION_ASSIGNMENT(#25,#34,(#6)) ;
#35=CC_DESIGN_PERSON_AND_ORGANIZATION_ASSIGNMENT(#25,#36,(#6,#14)) ;
#37=CC_DESIGN_PERSON_AND_ORGANIZATION_ASSIGNMENT(#25,#38,(#5)) ;
#26=PERSON_AND_ORGANIZATION_ROLE('classification_officer') ;
#34=PERSON_AND_ORGANIZATION_ROLE('design_supplier') ;
#36=PERSON_AND_ORGANIZATION_ROLE('creator') ;
#38=PERSON_AND_ORGANIZATION_ROLE('design_owner') ;
#39=CC_DESIGN_SECURITY_CLASSIFICATION(#16,(#6)) ;
#60=CIRCLE('generated circle',#59,8.35) ;
#76=CIRCLE('generated circle',#75,8.35) ;
#95=CIRCLE('generated circle',#94,8.35) ;
#100=CIRCLE('generated circle',#99,8.35) ;
#126=CIRCLE('generated circle',#125,6.87264973081) ;
#140=CIRCLE('generated circle',#139,7.45) ;
#157=CIRCLE('generated circle',#156,6.87264973081) ;
#162=CIRCLE('generated circle',#161,7.45) ;
#183=CIRCLE('generated circle',#182,4.28867513459) ;
#192=CIRCLE('generated circle',#191,4.28867513459) ;
#214=CIRCLE('generated circle',#213,4.) ;
#238=CIRCLE('generated circle',#237,4.) ;
#259=CIRCLE('generated circle',#258,4.5) ;
#268=CIRCLE('generated circle',#267,4.5) ;
#283=CIRCLE('generated circle',#282,4.) ;
#309=CIRCLE('generated circle',#308,4.) ;
#374=CIRCLE('generated circle',#373,7.45) ;
#386=CIRCLE('generated circle',#385,7.45) ;
#410=CIRCLE('generated circle',#409,6.73038475773) ;
#429=CIRCLE('generated circle',#428,6.73038475773) ;
#446=CIRCLE('generated circle',#445,0.6) ;
#453=CIRCLE('generated circle',#452,7.25) ;
#460=CIRCLE('generated circle',#459,0.6) ;
#472=CIRCLE('generated circle',#471,7.25) ;
#113=CONICAL_SURFACE('Cone',#112,0.,0.523598775598) ;
#153=CONICAL_SURFACE('Cone',#152,0.,0.523598775598) ;
#203=CONICAL_SURFACE('Cone',#202,0.,0.523598775598) ;
#234=CONICAL_SURFACE('Cone',#233,0.,0.523598775598) ;
#322=CONICAL_SURFACE('Cone',#321,0.,1.0471975512) ;
#344=CONICAL_SURFACE('Cone',#343,0.,1.0471975512) ;
#399=CONICAL_SURFACE('Cone',#398,6.73038475773,0.523598775598) ;
#497=SHAPE_REPRESENTATION_RELATIONSHIP(' ',' ',#49,#496) ;
#56=CYLINDRICAL_SURFACE('generated cylinder',#55,8.35) ;
#279=CYLINDRICAL_SURFACE('generated cylinder',#278,4.) ;
#356=CYLINDRICAL_SURFACE('generated cylinder',#355,7.45) ;
#442=TOROIDAL_SURFACE('homeo Torus',#441,7.25,0.6) ;
#3=DESIGN_CONTEXT(' ',#1,'design') ;
#65=EDGE_CURVE('',#62,#64,#60,.T.) ;
#72=EDGE_CURVE('',#62,#71,#69,.F.) ;
#79=EDGE_CURVE('',#71,#78,#76,.T.) ;
#84=EDGE_CURVE('',#64,#78,#83,.F.) ;
#96=EDGE_CURVE('',#64,#62,#95,.T.) ;
#101=EDGE_CURVE('',#78,#71,#100,.T.) ;
#122=EDGE_CURVE('',#119,#121,#117,.F.) ;
#129=EDGE_CURVE('',#121,#128,#126,.T.) ;
#136=EDGE_CURVE('',#135,#128,#133,.F.) ;
#141=EDGE_CURVE('',#119,#135,#140,.T.) ;
#158=EDGE_CURVE('',#128,#121,#157,.T.) ;
#163=EDGE_CURVE('',#135,#119,#162,.T.) ;
#188=EDGE_CURVE('',#185,#187,#183,.T.) ;
#193=EDGE_CURVE('',#187,#185,#192,.T.) ;
#210=EDGE_CURVE('',#185,#209,#207,.F.) ;
#217=EDGE_CURVE('',#209,#216,#214,.T.) ;
#222=EDGE_CURVE('',#187,#216,#221,.F.) ;
#239=EDGE_CURVE('',#216,#209,#238,.T.) ;
#264=EDGE_CURVE('',#261,#263,#259,.T.) ;
#269=EDGE_CURVE('',#263,#261,#268,.T.) ;
#288=EDGE_CURVE('',#285,#287,#283,.T.) ;
#293=EDGE_CURVE('',#209,#287,#292,.T.) ;
#298=EDGE_CURVE('',#216,#285,#297,.T.) ;
#310=EDGE_CURVE('',#287,#285,#309,.T.) ;
#327=EDGE_CURVE('',#287,#263,#326,.T.) ;
#332=EDGE_CURVE('',#285,#261,#331,.T.) ;
#363=EDGE_CURVE('',#362,#119,#360,.F.) ;
#370=EDGE_CURVE('',#369,#135,#367,.F.) ;
#375=EDGE_CURVE('',#362,#369,#374,.T.) ;
#387=EDGE_CURVE('',#369,#362,#386,.T.) ;
#406=EDGE_CURVE('',#362,#405,#403,.F.) ;
#413=EDGE_CURVE('',#412,#405,#410,.F.) ;
#418=EDGE_CURVE('',#369,#412,#417,.F.) ;
#430=EDGE_CURVE('',#405,#412,#429,.F.) ;
#449=EDGE_CURVE('',#405,#448,#446,.F.) ;
#456=EDGE_CURVE('',#455,#448,#453,.T.) ;
#461=EDGE_CURVE('',#412,#455,#460,.F.) ;
#473=EDGE_CURVE('',#448,#455,#472,.T.) ;
#85=EDGE_LOOP('',(#86,#87,#88,#89)) ;
#102=EDGE_LOOP('',(#103,#104,#105,#106)) ;
#142=EDGE_LOOP('',(#143,#144,#145,#146)) ;
#164=EDGE_LOOP('',(#165,#166,#167,#168)) ;
#176=EDGE_LOOP('',(#177,#178)) ;
#194=EDGE_LOOP('',(#195,#196)) ;
#223=EDGE_LOOP('',(#224,#225,#226,#227)) ;
#240=EDGE_LOOP('',(#241,#242,#243,#244)) ;
#252=EDGE_LOOP('',(#253,#254)) ;
#270=EDGE_LOOP('',(#271,#272)) ;
#299=EDGE_LOOP('',(#300,#301,#302,#303)) ;
#311=EDGE_LOOP('',(#312,#313,#314,#315)) ;
#333=EDGE_LOOP('',(#334,#335,#336,#337)) ;
#345=EDGE_LOOP('',(#346,#347,#348,#349)) ;
#376=EDGE_LOOP('',(#377,#378,#379,#380)) ;
#388=EDGE_LOOP('',(#389,#390,#391,#392)) ;
#419=EDGE_LOOP('',(#420,#421,#422,#423)) ;
#431=EDGE_LOOP('',(#432,#433,#434,#435)) ;
#462=EDGE_LOOP('',(#463,#464,#465,#466)) ;
#474=EDGE_LOOP('',(#475,#476,#477,#478)) ;
#486=EDGE_LOOP('',(#487,#488)) ;
#490=EDGE_LOOP('',(#491,#492)) ;
#90=FACE_OUTER_BOUND('',#85,.T.) ;
#107=FACE_OUTER_BOUND('',#102,.T.) ;
#147=FACE_OUTER_BOUND('',#142,.T.) ;
#169=FACE_OUTER_BOUND('',#164,.T.) ;
#179=FACE_OUTER_BOUND('',#176,.T.) ;
#228=FACE_OUTER_BOUND('',#223,.T.) ;
#245=FACE_OUTER_BOUND('',#240,.T.) ;
#255=FACE_OUTER_BOUND('',#252,.T.) ;
#304=FACE_OUTER_BOUND('',#299,.T.) ;
#316=FACE_OUTER_BOUND('',#311,.T.) ;
#338=FACE_OUTER_BOUND('',#333,.T.) ;
#350=FACE_OUTER_BOUND('',#345,.T.) ;
#381=FACE_OUTER_BOUND('',#376,.T.) ;
#393=FACE_OUTER_BOUND('',#388,.T.) ;
#424=FACE_OUTER_BOUND('',#419,.T.) ;
#436=FACE_OUTER_BOUND('',#431,.T.) ;
#467=FACE_OUTER_BOUND('',#462,.T.) ;
#479=FACE_OUTER_BOUND('',#474,.T.) ;
#489=FACE_OUTER_BOUND('',#486,.T.) ;
#45=UNCERTAINTY_MEASURE_WITH_UNIT(LENGTH_MEASURE(0.005),#41,'distance_accuracy_value','CONFUSED CURVE UNCERTAINTY') ;
#69=LINE('Line',#66,#68) ;
#83=LINE('Line',#80,#82) ;
#117=LINE('Line',#114,#116) ;
#133=LINE('Line',#130,#132) ;
#207=LINE('Line',#204,#206) ;
#221=LINE('Line',#218,#220) ;
#292=LINE('Line',#289,#291) ;
#297=LINE('Line',#294,#296) ;
#326=LINE('Line',#323,#325) ;
#331=LINE('Line',#328,#330) ;
#360=LINE('Line',#357,#359) ;
#367=LINE('Line',#364,#366) ;
#403=LINE('Line',#400,#402) ;
#417=LINE('Line',#414,#416) ;
#2=MECHANICAL_CONTEXT(' ',#1,'mechanical') ;
#24=PERSONAL_ADDRESS(' ',' ',' ',' ',' ',' ',' ',' ',' ',' ',' ',' ',(#22),' ') ;
#175=PLANE('Plane',#174) ;
#251=PLANE('Plane',#250) ;
#485=PLANE('Plane',#484) ;
#43=PLANE_ANGLE_MEASURE_WITH_UNIT(PLANE_ANGLE_MEASURE(0.0174532925199),#42) ;
#7=PRODUCT_CATEGORY('part',$) ;
#9=PRODUCT_CATEGORY_RELATIONSHIP(' ',' ',#7,#8) ;
#6=PRODUCT_DEFINITION_FORMATION_WITH_SPECIFIED_SOURCE('',' ',#5,.NOT_KNOWN.) ;
#8=PRODUCT_RELATED_PRODUCT_CATEGORY('detail',$,(#5)) ;
#50=SHAPE_DEFINITION_REPRESENTATION(#40,#49) ;
#62=VERTEX_POINT('',#61) ;
#64=VERTEX_POINT('',#63) ;
#71=VERTEX_POINT('',#70) ;
#78=VERTEX_POINT('',#77) ;
#119=VERTEX_POINT('',#118) ;
#121=VERTEX_POINT('',#120) ;
#128=VERTEX_POINT('',#127) ;
#135=VERTEX_POINT('',#134) ;
#185=VERTEX_POINT('',#184) ;
#187=VERTEX_POINT('',#186) ;
#209=VERTEX_POINT('',#208) ;
#216=VERTEX_POINT('',#215) ;
#261=VERTEX_POINT('',#260) ;
#263=VERTEX_POINT('',#262) ;
#285=VERTEX_POINT('',#284) ;
#287=VERTEX_POINT('',#286) ;
#362=VERTEX_POINT('',#361) ;
#369=VERTEX_POINT('',#368) ;
#405=VERTEX_POINT('',#404) ;
#412=VERTEX_POINT('',#411) ;
#448=VERTEX_POINT('',#447) ;
#455=VERTEX_POINT('',#454) ;
#41=(LENGTH_UNIT()NAMED_UNIT(*)SI_UNIT(.MILLI.,.METRE.)) ;
#42=(NAMED_UNIT(*)PLANE_ANGLE_UNIT()SI_UNIT($,.RADIAN.)) ;
#44=(NAMED_UNIT(*)SI_UNIT($,.STERADIAN.)SOLID_ANGLE_UNIT()) ;
#46=(GEOMETRIC_REPRESENTATION_CONTEXT(3)GLOBAL_UNCERTAINTY_ASSIGNED_CONTEXT((#45))GLOBAL_UNIT_ASSIGNED_CONTEXT((#41,#42,#44))REPRESENTATION_CONTEXT(' ',' ')) ;
ENDSEC;
END-ISO-10303-21;
