ISO-10303-21;
HEADER;
/* Generated by software containing ST-Developer
 * from STEP Tools, Inc. (www.steptools.com) 
 */

FILE_DESCRIPTION(
/* description */ (''),
/* implementation_level */ '2;1');

FILE_NAME(
/* name */ 'vlo v1.step',
/* time_stamp */ '2024-07-22T15:48:06+02:00',
/* author */ (''),
/* organization */ (''),
/* preprocessor_version */ 'ST-DEVELOPER v20',
/* originating_system */ 'Autodesk Translation Framework v13.14.0.145',

/* authorisation */ '');

FILE_SCHEMA (('AUTOMOTIVE_DESIGN { 1 0 10303 214 3 1 1 }'));
ENDSEC;

DATA;
#10=MECHANICAL_DESIGN_GEOMETRIC_PRESENTATION_REPRESENTATION('',(#13),#396);
#11=SHAPE_REPRESENTATION_RELATIONSHIP('SRR','None',#403,#12);
#12=ADVANCED_BREP_SHAPE_REPRESENTATION('',(#14),#395);
#13=STYLED_ITEM('',(#412),#14);
#14=MANIFOLD_SOLID_BREP('Corps1',#214);
#15=LINE('',#350,#22);
#16=LINE('',#359,#23);
#17=LINE('',#366,#24);
#18=LINE('',#372,#25);
#19=LINE('',#377,#26);
#20=LINE('',#386,#27);
#21=LINE('',#391,#28);
#22=VECTOR('',#279,14.);
#23=VECTOR('',#290,37.5);
#24=VECTOR('',#299,45.);
#25=VECTOR('',#308,12.);
#26=VECTOR('',#313,47.9);
#27=VECTOR('',#326,57.5);
#28=VECTOR('',#333,17.5);
#29=CYLINDRICAL_SURFACE('',#234,14.);
#30=CYLINDRICAL_SURFACE('',#239,37.5);
#31=CYLINDRICAL_SURFACE('',#243,45.);
#32=CYLINDRICAL_SURFACE('',#247,12.);
#33=CYLINDRICAL_SURFACE('',#249,47.9);
#34=CYLINDRICAL_SURFACE('',#255,57.5);
#35=CYLINDRICAL_SURFACE('',#258,17.425);
#36=FACE_BOUND('',#70,.T.);
#37=FACE_BOUND('',#73,.T.);
#38=FACE_BOUND('',#76,.T.);
#39=FACE_BOUND('',#79,.T.);
#40=FACE_BOUND('',#83,.T.);
#41=FACE_BOUND('',#85,.T.);
#42=FACE_BOUND('',#88,.T.);
#43=FACE_BOUND('',#91,.T.);
#44=PLANE('',#232);
#45=PLANE('',#237);
#46=PLANE('',#242);
#47=PLANE('',#246);
#48=PLANE('',#252);
#49=PLANE('',#253);
#50=PLANE('',#257);
#51=PLANE('',#260);
#52=FACE_OUTER_BOUND('',#68,.T.);
#53=FACE_OUTER_BOUND('',#69,.T.);
#54=FACE_OUTER_BOUND('',#71,.T.);
#55=FACE_OUTER_BOUND('',#72,.T.);
#56=FACE_OUTER_BOUND('',#74,.T.);
#57=FACE_OUTER_BOUND('',#75,.T.);
#58=FACE_OUTER_BOUND('',#77,.T.);
#59=FACE_OUTER_BOUND('',#78,.T.);
#60=FACE_OUTER_BOUND('',#80,.T.);
#61=FACE_OUTER_BOUND('',#81,.T.);
#62=FACE_OUTER_BOUND('',#82,.T.);
#63=FACE_OUTER_BOUND('',#84,.T.);
#64=FACE_OUTER_BOUND('',#86,.T.);
#65=FACE_OUTER_BOUND('',#87,.T.);
#66=FACE_OUTER_BOUND('',#89,.T.);
#67=FACE_OUTER_BOUND('',#90,.T.);
#68=EDGE_LOOP('',(#149,#150,#151,#152));
#69=EDGE_LOOP('',(#153));
#70=EDGE_LOOP('',(#154));
#71=EDGE_LOOP('',(#155,#156,#157,#158));
#72=EDGE_LOOP('',(#159));
#73=EDGE_LOOP('',(#160));
#74=EDGE_LOOP('',(#161,#162,#163,#164));
#75=EDGE_LOOP('',(#165));
#76=EDGE_LOOP('',(#166));
#77=EDGE_LOOP('',(#167,#168,#169,#170));
#78=EDGE_LOOP('',(#171));
#79=EDGE_LOOP('',(#172));
#80=EDGE_LOOP('',(#173,#174,#175,#176));
#81=EDGE_LOOP('',(#177,#178,#179,#180));
#82=EDGE_LOOP('',(#181));
#83=EDGE_LOOP('',(#182));
#84=EDGE_LOOP('',(#183));
#85=EDGE_LOOP('',(#184));
#86=EDGE_LOOP('',(#185,#186,#187,#188));
#87=EDGE_LOOP('',(#189));
#88=EDGE_LOOP('',(#190));
#89=EDGE_LOOP('',(#191,#192,#193,#194));
#90=EDGE_LOOP('',(#195));
#91=EDGE_LOOP('',(#196));
#92=CIRCLE('',#229,42.8431457505076);
#93=CIRCLE('',#230,6.);
#94=CIRCLE('',#231,48.5);
#95=CIRCLE('',#233,17.425);
#96=CIRCLE('',#235,14.);
#97=CIRCLE('',#236,14.);
#98=CIRCLE('',#238,12.);
#99=CIRCLE('',#240,37.5);
#100=CIRCLE('',#241,37.5);
#101=CIRCLE('',#244,45.);
#102=CIRCLE('',#245,45.);
#103=CIRCLE('',#248,12.);
#104=CIRCLE('',#250,47.9);
#105=CIRCLE('',#251,47.9);
#106=CIRCLE('',#254,57.5);
#107=CIRCLE('',#256,57.5);
#108=CIRCLE('',#259,17.425);
#109=VERTEX_POINT('',#338);
#110=VERTEX_POINT('',#340);
#111=VERTEX_POINT('',#344);
#112=VERTEX_POINT('',#347);
#113=VERTEX_POINT('',#349);
#114=VERTEX_POINT('',#353);
#115=VERTEX_POINT('',#356);
#116=VERTEX_POINT('',#358);
#117=VERTEX_POINT('',#363);
#118=VERTEX_POINT('',#365);
#119=VERTEX_POINT('',#370);
#120=VERTEX_POINT('',#374);
#121=VERTEX_POINT('',#376);
#122=VERTEX_POINT('',#381);
#123=VERTEX_POINT('',#384);
#124=VERTEX_POINT('',#389);
#125=EDGE_CURVE('',#109,#109,#92,.T.);
#126=EDGE_CURVE('',#109,#110,#93,.T.);
#127=EDGE_CURVE('',#110,#110,#94,.T.);
#128=EDGE_CURVE('',#111,#111,#95,.T.);
#129=EDGE_CURVE('',#112,#112,#96,.T.);
#130=EDGE_CURVE('',#112,#113,#15,.T.);
#131=EDGE_CURVE('',#113,#113,#97,.T.);
#132=EDGE_CURVE('',#114,#114,#98,.T.);
#133=EDGE_CURVE('',#115,#115,#99,.T.);
#134=EDGE_CURVE('',#115,#116,#16,.T.);
#135=EDGE_CURVE('',#116,#116,#100,.T.);
#136=EDGE_CURVE('',#117,#117,#101,.T.);
#137=EDGE_CURVE('',#117,#118,#17,.T.);
#138=EDGE_CURVE('',#118,#118,#102,.T.);
#139=EDGE_CURVE('',#119,#119,#103,.T.);
#140=EDGE_CURVE('',#119,#114,#18,.T.);
#141=EDGE_CURVE('',#120,#120,#104,.T.);
#142=EDGE_CURVE('',#120,#121,#19,.T.);
#143=EDGE_CURVE('',#121,#121,#105,.T.);
#144=EDGE_CURVE('',#122,#122,#106,.T.);
#145=EDGE_CURVE('',#123,#123,#107,.T.);
#146=EDGE_CURVE('',#123,#122,#20,.T.);
#147=EDGE_CURVE('',#124,#124,#108,.F.);
#148=EDGE_CURVE('',#124,#111,#21,.T.);
#149=ORIENTED_EDGE('',*,*,#125,.T.);
#150=ORIENTED_EDGE('',*,*,#126,.T.);
#151=ORIENTED_EDGE('',*,*,#127,.F.);
#152=ORIENTED_EDGE('',*,*,#126,.F.);
#153=ORIENTED_EDGE('',*,*,#125,.F.);
#154=ORIENTED_EDGE('',*,*,#128,.T.);
#155=ORIENTED_EDGE('',*,*,#129,.F.);
#156=ORIENTED_EDGE('',*,*,#130,.T.);
#157=ORIENTED_EDGE('',*,*,#131,.T.);
#158=ORIENTED_EDGE('',*,*,#130,.F.);
#159=ORIENTED_EDGE('',*,*,#131,.F.);
#160=ORIENTED_EDGE('',*,*,#132,.F.);
#161=ORIENTED_EDGE('',*,*,#133,.F.);
#162=ORIENTED_EDGE('',*,*,#134,.T.);
#163=ORIENTED_EDGE('',*,*,#135,.T.);
#164=ORIENTED_EDGE('',*,*,#134,.F.);
#165=ORIENTED_EDGE('',*,*,#135,.F.);
#166=ORIENTED_EDGE('',*,*,#129,.T.);
#167=ORIENTED_EDGE('',*,*,#136,.F.);
#168=ORIENTED_EDGE('',*,*,#137,.T.);
#169=ORIENTED_EDGE('',*,*,#138,.T.);
#170=ORIENTED_EDGE('',*,*,#137,.F.);
#171=ORIENTED_EDGE('',*,*,#138,.F.);
#172=ORIENTED_EDGE('',*,*,#133,.T.);
#173=ORIENTED_EDGE('',*,*,#139,.F.);
#174=ORIENTED_EDGE('',*,*,#140,.T.);
#175=ORIENTED_EDGE('',*,*,#132,.T.);
#176=ORIENTED_EDGE('',*,*,#140,.F.);
#177=ORIENTED_EDGE('',*,*,#141,.F.);
#178=ORIENTED_EDGE('',*,*,#142,.T.);
#179=ORIENTED_EDGE('',*,*,#143,.F.);
#180=ORIENTED_EDGE('',*,*,#142,.F.);
#181=ORIENTED_EDGE('',*,*,#141,.T.);
#182=ORIENTED_EDGE('',*,*,#136,.T.);
#183=ORIENTED_EDGE('',*,*,#144,.T.);
#184=ORIENTED_EDGE('',*,*,#127,.T.);
#185=ORIENTED_EDGE('',*,*,#145,.F.);
#186=ORIENTED_EDGE('',*,*,#146,.T.);
#187=ORIENTED_EDGE('',*,*,#144,.F.);
#188=ORIENTED_EDGE('',*,*,#146,.F.);
#189=ORIENTED_EDGE('',*,*,#145,.T.);
#190=ORIENTED_EDGE('',*,*,#143,.T.);
#191=ORIENTED_EDGE('',*,*,#147,.F.);
#192=ORIENTED_EDGE('',*,*,#148,.T.);
#193=ORIENTED_EDGE('',*,*,#128,.F.);
#194=ORIENTED_EDGE('',*,*,#148,.F.);
#195=ORIENTED_EDGE('',*,*,#147,.T.);
#196=ORIENTED_EDGE('',*,*,#139,.T.);
#197=TOROIDAL_SURFACE('',#228,42.8431457505076,6.);
#198=ADVANCED_FACE('',(#52),#197,.T.);
#199=ADVANCED_FACE('',(#53,#36),#44,.T.);
#200=ADVANCED_FACE('',(#54),#29,.F.);
#201=ADVANCED_FACE('',(#55,#37),#45,.F.);
#202=ADVANCED_FACE('',(#56),#30,.F.);
#203=ADVANCED_FACE('',(#57,#38),#46,.F.);
#204=ADVANCED_FACE('',(#58),#31,.F.);
#205=ADVANCED_FACE('',(#59,#39),#47,.F.);
#206=ADVANCED_FACE('',(#60),#32,.F.);
#207=ADVANCED_FACE('',(#61),#33,.T.);
#208=ADVANCED_FACE('',(#62,#40),#48,.T.);
#209=ADVANCED_FACE('',(#63,#41),#49,.T.);
#210=ADVANCED_FACE('',(#64),#34,.T.);
#211=ADVANCED_FACE('',(#65,#42),#50,.T.);
#212=ADVANCED_FACE('',(#66),#35,.T.);
#213=ADVANCED_FACE('',(#67,#43),#51,.T.);
#214=CLOSED_SHELL('',(#198,#199,#200,#201,#202,#203,#204,#205,#206,#207,
#208,#209,#210,#211,#212,#213));
#215=DERIVED_UNIT_ELEMENT(#217,1.);
#216=DERIVED_UNIT_ELEMENT(#398,-3.);
#217=(
MASS_UNIT()
NAMED_UNIT(*)
SI_UNIT(.KILO.,.GRAM.)
);
#218=DERIVED_UNIT((#215,#216));
#219=MEASURE_REPRESENTATION_ITEM('density measure',
POSITIVE_RATIO_MEASURE(7850.),#218);
#220=PROPERTY_DEFINITION_REPRESENTATION(#225,#222);
#221=PROPERTY_DEFINITION_REPRESENTATION(#226,#223);
#222=REPRESENTATION('material name',(#224),#395);
#223=REPRESENTATION('density',(#219),#395);
#224=DESCRIPTIVE_REPRESENTATION_ITEM('Acier','Acier');
#225=PROPERTY_DEFINITION('material property','material name',#405);
#226=PROPERTY_DEFINITION('material property','density of part',#405);
#227=AXIS2_PLACEMENT_3D('',#336,#261,#262);
#228=AXIS2_PLACEMENT_3D('',#337,#263,#264);
#229=AXIS2_PLACEMENT_3D('',#339,#265,#266);
#230=AXIS2_PLACEMENT_3D('',#341,#267,#268);
#231=AXIS2_PLACEMENT_3D('',#342,#269,#270);
#232=AXIS2_PLACEMENT_3D('',#343,#271,#272);
#233=AXIS2_PLACEMENT_3D('',#345,#273,#274);
#234=AXIS2_PLACEMENT_3D('',#346,#275,#276);
#235=AXIS2_PLACEMENT_3D('',#348,#277,#278);
#236=AXIS2_PLACEMENT_3D('',#351,#280,#281);
#237=AXIS2_PLACEMENT_3D('',#352,#282,#283);
#238=AXIS2_PLACEMENT_3D('',#354,#284,#285);
#239=AXIS2_PLACEMENT_3D('',#355,#286,#287);
#240=AXIS2_PLACEMENT_3D('',#357,#288,#289);
#241=AXIS2_PLACEMENT_3D('',#360,#291,#292);
#242=AXIS2_PLACEMENT_3D('',#361,#293,#294);
#243=AXIS2_PLACEMENT_3D('',#362,#295,#296);
#244=AXIS2_PLACEMENT_3D('',#364,#297,#298);
#245=AXIS2_PLACEMENT_3D('',#367,#300,#301);
#246=AXIS2_PLACEMENT_3D('',#368,#302,#303);
#247=AXIS2_PLACEMENT_3D('',#369,#304,#305);
#248=AXIS2_PLACEMENT_3D('',#371,#306,#307);
#249=AXIS2_PLACEMENT_3D('',#373,#309,#310);
#250=AXIS2_PLACEMENT_3D('',#375,#311,#312);
#251=AXIS2_PLACEMENT_3D('',#378,#314,#315);
#252=AXIS2_PLACEMENT_3D('',#379,#316,#317);
#253=AXIS2_PLACEMENT_3D('',#380,#318,#319);
#254=AXIS2_PLACEMENT_3D('',#382,#320,#321);
#255=AXIS2_PLACEMENT_3D('',#383,#322,#323);
#256=AXIS2_PLACEMENT_3D('',#385,#324,#325);
#257=AXIS2_PLACEMENT_3D('',#387,#327,#328);
#258=AXIS2_PLACEMENT_3D('',#388,#329,#330);
#259=AXIS2_PLACEMENT_3D('',#390,#331,#332);
#260=AXIS2_PLACEMENT_3D('',#392,#334,#335);
#261=DIRECTION('axis',(0.,0.,1.));
#262=DIRECTION('refdir',(1.,0.,0.));
#263=DIRECTION('center_axis',(1.,0.,-2.22044604925031E-16));
#264=DIRECTION('ref_axis',(2.18211601088178E-16,-1.54804268096361E-16,1.));
#265=DIRECTION('center_axis',(-1.,0.,2.22044604925031E-16));
#266=DIRECTION('ref_axis',(2.33223005607799E-16,-1.54804268096361E-16,1.));
#267=DIRECTION('center_axis',(7.18083108122732E-33,1.,3.23395881816258E-17));
#268=DIRECTION('ref_axis',(-2.27303751133519E-16,3.23395881816258E-17,-1.));
#269=DIRECTION('center_axis',(-1.,0.,2.22044604925031E-16));
#270=DIRECTION('ref_axis',(2.22044604925031E-16,0.,1.));
#271=DIRECTION('center_axis',(1.,0.,-2.22044604925031E-16));
#272=DIRECTION('ref_axis',(-2.22044604925031E-16,0.,-1.));
#273=DIRECTION('center_axis',(-1.,0.,2.22044604925031E-16));
#274=DIRECTION('ref_axis',(-2.22044604925031E-16,0.,-1.));
#275=DIRECTION('center_axis',(1.,0.,-2.22044604925031E-16));
#276=DIRECTION('ref_axis',(0.,-1.,0.));
#277=DIRECTION('center_axis',(1.,0.,-2.22044604925031E-16));
#278=DIRECTION('ref_axis',(0.,-1.,0.));
#279=DIRECTION('',(1.,0.,-2.22044604925031E-16));
#280=DIRECTION('center_axis',(1.,0.,-2.22044604925031E-16));
#281=DIRECTION('ref_axis',(0.,-1.,0.));
#282=DIRECTION('center_axis',(1.,0.,-2.22044604925031E-16));
#283=DIRECTION('ref_axis',(0.,-1.,0.));
#284=DIRECTION('center_axis',(-1.,0.,2.22044604925031E-16));
#285=DIRECTION('ref_axis',(0.,1.,0.));
#286=DIRECTION('center_axis',(1.,0.,-2.22044604925031E-16));
#287=DIRECTION('ref_axis',(0.,-1.,0.));
#288=DIRECTION('center_axis',(1.,0.,-2.22044604925031E-16));
#289=DIRECTION('ref_axis',(0.,-1.,0.));
#290=DIRECTION('',(1.,0.,-2.22044604925031E-16));
#291=DIRECTION('center_axis',(1.,0.,-2.22044604925031E-16));
#292=DIRECTION('ref_axis',(0.,-1.,0.));
#293=DIRECTION('center_axis',(1.,0.,-2.22044604925031E-16));
#294=DIRECTION('ref_axis',(0.,-1.,0.));
#295=DIRECTION('center_axis',(1.,0.,-2.22044604925031E-16));
#296=DIRECTION('ref_axis',(0.,-1.,0.));
#297=DIRECTION('center_axis',(1.,0.,-2.22044604925031E-16));
#298=DIRECTION('ref_axis',(0.,-1.,0.));
#299=DIRECTION('',(1.,0.,-2.22044604925031E-16));
#300=DIRECTION('center_axis',(1.,0.,-2.22044604925031E-16));
#301=DIRECTION('ref_axis',(0.,-1.,0.));
#302=DIRECTION('center_axis',(1.,0.,-2.22044604925031E-16));
#303=DIRECTION('ref_axis',(0.,-1.,0.));
#304=DIRECTION('center_axis',(-1.,0.,0.));
#305=DIRECTION('ref_axis',(0.,1.,0.));
#306=DIRECTION('center_axis',(-1.,0.,2.22044604925031E-16));
#307=DIRECTION('ref_axis',(0.,1.,0.));
#308=DIRECTION('',(-1.,0.,0.));
#309=DIRECTION('center_axis',(-1.,0.,2.22044604925031E-16));
#310=DIRECTION('ref_axis',(2.22044604925031E-16,0.,1.));
#311=DIRECTION('center_axis',(-1.,0.,2.22044604925031E-16));
#312=DIRECTION('ref_axis',(2.22044604925031E-16,0.,1.));
#313=DIRECTION('',(1.,0.,-2.22044604925031E-16));
#314=DIRECTION('center_axis',(1.,0.,-2.22044604925031E-16));
#315=DIRECTION('ref_axis',(2.22044604925031E-16,0.,1.));
#316=DIRECTION('center_axis',(-1.,0.,2.22044604925031E-16));
#317=DIRECTION('ref_axis',(2.22044604925031E-16,0.,1.));
#318=DIRECTION('center_axis',(1.,0.,-2.22044604925031E-16));
#319=DIRECTION('ref_axis',(-2.22044604925031E-16,0.,-1.));
#320=DIRECTION('center_axis',(1.,0.,-2.22044604925031E-16));
#321=DIRECTION('ref_axis',(2.22044604925031E-16,0.,1.));
#322=DIRECTION('center_axis',(-1.,0.,2.22044604925031E-16));
#323=DIRECTION('ref_axis',(2.22044604925031E-16,0.,1.));
#324=DIRECTION('center_axis',(-1.,0.,2.22044604925031E-16));
#325=DIRECTION('ref_axis',(2.22044604925031E-16,0.,1.));
#326=DIRECTION('',(1.,0.,-2.22044604925031E-16));
#327=DIRECTION('center_axis',(-1.,0.,2.22044604925031E-16));
#328=DIRECTION('ref_axis',(2.22044604925031E-16,0.,1.));
#329=DIRECTION('center_axis',(1.,0.,-2.22044604925031E-16));
#330=DIRECTION('ref_axis',(-2.22044604925031E-16,0.,-1.));
#331=DIRECTION('center_axis',(-1.,0.,2.22044604925031E-16));
#332=DIRECTION('ref_axis',(-2.22044604925031E-16,0.,-1.));
#333=DIRECTION('',(-1.,0.,2.22044604925031E-16));
#334=DIRECTION('center_axis',(1.,0.,-2.22044604925031E-16));
#335=DIRECTION('ref_axis',(-2.22044604925031E-16,0.,-1.));
#336=CARTESIAN_POINT('',(0.,0.,0.));
#337=CARTESIAN_POINT('Origin',(-6.,0.,1.33226762955019E-15));
#338=CARTESIAN_POINT('',(-9.99200722162641E-15,1.38552968997679E-15,-42.8431457505076));
#339=CARTESIAN_POINT('Origin',(0.,0.,0.));
#340=CARTESIAN_POINT('',(-4.00000000000001,1.56847002680885E-15,-48.5));
#341=CARTESIAN_POINT('Origin',(-6.00000000000001,1.38552968997679E-15,-42.8431457505076));
#342=CARTESIAN_POINT('Origin',(-4.,0.,8.88178419700125E-16));
#343=CARTESIAN_POINT('Origin',(0.,0.,0.));
#344=CARTESIAN_POINT('',(3.86912724081867E-15,2.13394704751426E-15,17.425));
#345=CARTESIAN_POINT('Origin',(0.,0.,0.));
#346=CARTESIAN_POINT('Origin',(2.,0.,-8.88178419700125E-16));
#347=CARTESIAN_POINT('',(-2.,14.,1.7145055188063E-15));
#348=CARTESIAN_POINT('Origin',(-2.,0.,2.46519032881566E-31));
#349=CARTESIAN_POINT('',(6.,14.,-6.18513205939556E-17));
#350=CARTESIAN_POINT('',(2.,14.,8.2632709910617E-16));
#351=CARTESIAN_POINT('Origin',(6.,0.,-1.77635683940025E-15));
#352=CARTESIAN_POINT('Origin',(6.,0.,-1.77635683940025E-15));
#353=CARTESIAN_POINT('',(6.,-12.,1.46957615897682E-15));
#354=CARTESIAN_POINT('Origin',(6.,0.,0.));
#355=CARTESIAN_POINT('Origin',(-5.25,1.75417732463372E-15,-7.01490131920367E-16));
#356=CARTESIAN_POINT('',(-8.5,37.5,4.61258033088856E-15));
#357=CARTESIAN_POINT('Origin',(-8.5,1.75417732463372E-15,2.01548340859845E-17));
#358=CARTESIAN_POINT('',(-2.,37.5,3.16929039887586E-15));
#359=CARTESIAN_POINT('',(-5.25,37.5,3.89093536488221E-15));
#360=CARTESIAN_POINT('Origin',(-2.,1.75417732463372E-15,-1.42313509792672E-15));
#361=CARTESIAN_POINT('Origin',(-2.,1.75417732463372E-15,-1.42313509792672E-15));
#362=CARTESIAN_POINT('Origin',(-16.,0.,1.68548937102372E-15));
#363=CARTESIAN_POINT('',(-23.5,45.,8.86173450412454E-15));
#364=CARTESIAN_POINT('Origin',(-23.5,0.,3.35082390796145E-15));
#365=CARTESIAN_POINT('',(-8.5,45.,5.53106543024907E-15));
#366=CARTESIAN_POINT('',(-16.,45.,7.19639996718681E-15));
#367=CARTESIAN_POINT('Origin',(-8.5,0.,2.01548340859846E-17));
#368=CARTESIAN_POINT('Origin',(-8.5,0.,2.01548340859846E-17));
#369=CARTESIAN_POINT('Origin',(-12.925,0.,0.));
#370=CARTESIAN_POINT('',(10.,-12.,1.46957615897682E-15));
#371=CARTESIAN_POINT('Origin',(10.,0.,-1.53826597855942E-15));
#372=CARTESIAN_POINT('',(-12.925,-12.,1.46957615897682E-15));
#373=CARTESIAN_POINT('Origin',(-15.75,0.,3.49720252756924E-15));
#374=CARTESIAN_POINT('',(-23.5,-5.86605816791582E-15,-47.9));
#375=CARTESIAN_POINT('Origin',(-23.5,0.,5.21804821573823E-15));
#376=CARTESIAN_POINT('',(-8.00000000000001,-5.86605816791582E-15,-47.9));
#377=CARTESIAN_POINT('',(-15.75,-5.86605816791582E-15,-47.9));
#378=CARTESIAN_POINT('Origin',(-8.,0.,1.77635683940025E-15));
#379=CARTESIAN_POINT('Origin',(-23.5,0.,5.21804821573823E-15));
#380=CARTESIAN_POINT('Origin',(-4.,0.,8.88178419700125E-16));
#381=CARTESIAN_POINT('',(-4.00000000000001,-7.04171909509728E-15,-57.5));
#382=CARTESIAN_POINT('Origin',(-4.,0.,8.88178419700125E-16));
#383=CARTESIAN_POINT('Origin',(-6.,0.,1.33226762955019E-15));
#384=CARTESIAN_POINT('',(-8.00000000000001,-7.04171909509728E-15,-57.5));
#385=CARTESIAN_POINT('Origin',(-8.,0.,1.77635683940025E-15));
#386=CARTESIAN_POINT('',(-6.00000000000001,-7.04171909509728E-15,-57.5));
#387=CARTESIAN_POINT('Origin',(-8.,0.,1.77635683940025E-15));
#388=CARTESIAN_POINT('Origin',(5.,0.,-1.11022302462516E-15));
#389=CARTESIAN_POINT('',(10.,2.13394704751426E-15,17.425));
#390=CARTESIAN_POINT('Origin',(10.,0.,-2.22044604925031E-15));
#391=CARTESIAN_POINT('',(5.,-2.13394704751426E-15,17.425));
#392=CARTESIAN_POINT('Origin',(10.,0.,-2.22044604925031E-15));
#393=UNCERTAINTY_MEASURE_WITH_UNIT(LENGTH_MEASURE(0.01),#397,
'DISTANCE_ACCURACY_VALUE',
'Maximum model space distance between geometric entities at asserted c
onnectivities');
#394=UNCERTAINTY_MEASURE_WITH_UNIT(LENGTH_MEASURE(0.01),#397,
'DISTANCE_ACCURACY_VALUE',
'Maximum model space distance between geometric entities at asserted c
onnectivities');
#395=(
GEOMETRIC_REPRESENTATION_CONTEXT(3)
GLOBAL_UNCERTAINTY_ASSIGNED_CONTEXT((#393))
GLOBAL_UNIT_ASSIGNED_CONTEXT((#397,#399,#400))
REPRESENTATION_CONTEXT('','3D')
);
#396=(
GEOMETRIC_REPRESENTATION_CONTEXT(3)
GLOBAL_UNCERTAINTY_ASSIGNED_CONTEXT((#394))
GLOBAL_UNIT_ASSIGNED_CONTEXT((#397,#399,#400))
REPRESENTATION_CONTEXT('','3D')
);
#397=(
LENGTH_UNIT()
NAMED_UNIT(*)
SI_UNIT(.MILLI.,.METRE.)
);
#398=(
LENGTH_UNIT()
NAMED_UNIT(*)
SI_UNIT($,.METRE.)
);
#399=(
NAMED_UNIT(*)
PLANE_ANGLE_UNIT()
SI_UNIT($,.RADIAN.)
);
#400=(
NAMED_UNIT(*)
SI_UNIT($,.STERADIAN.)
SOLID_ANGLE_UNIT()
);
#401=SHAPE_DEFINITION_REPRESENTATION(#402,#403);
#402=PRODUCT_DEFINITION_SHAPE('',$,#405);
#403=SHAPE_REPRESENTATION('',(#227),#395);
#404=PRODUCT_DEFINITION_CONTEXT('part definition',#409,'design');
#405=PRODUCT_DEFINITION('v\X\E9lo','v\X\E9lo v1',#406,#404);
#406=PRODUCT_DEFINITION_FORMATION('',$,#411);
#407=PRODUCT_RELATED_PRODUCT_CATEGORY('v\X\E9lo v1','v\X\E9lo v1',(#411));
#408=APPLICATION_PROTOCOL_DEFINITION('international standard',
'automotive_design',2009,#409);
#409=APPLICATION_CONTEXT(
'Core Data for Automotive Mechanical Design Process');
#410=PRODUCT_CONTEXT('part definition',#409,'mechanical');
#411=PRODUCT('v\X\E9lo','v\X\E9lo v1',$,(#410));
#412=PRESENTATION_STYLE_ASSIGNMENT((#413));
#413=SURFACE_STYLE_USAGE(.BOTH.,#414);
#414=SURFACE_SIDE_STYLE('',(#415));
#415=SURFACE_STYLE_FILL_AREA(#416);
#416=FILL_AREA_STYLE('Acier - Satin\X\E9',(#417));
#417=FILL_AREA_STYLE_COLOUR('Acier - Satin\X\E9',#418);
#418=COLOUR_RGB('Acier - Satin\X\E9',0.627450980392157,0.627450980392157,
0.627450980392157);
ENDSEC;
END-ISO-10303-21;
