ISO-10303-21;
HEADER;
/* Generated by software containing ST-Developer
 * from STEP Tools, Inc. (www.steptools.com) 
 */
/* OPTION: strings as raw bytes, not using required /X/ escapes */

FILE_DESCRIPTION(
/* description */ ('Unknown'),
/* implementation_level */ '2;1');

FILE_NAME(
/* name */ 'axle block',
/* time_stamp */ '2024-08-13T17:19:56+02:00',
/* author */ ('Unknown'),
/* organization */ ('Unknown'),
/* preprocessor_version */ 'ST-DEVELOPER v19.4',
/* originating_system */ 'Solid Edge',
/* authorisation */ 'Unknown');

FILE_SCHEMA (('AUTOMOTIVE_DESIGN {1 0 10303 214 3 1 1}'));
ENDSEC;

DATA;
#10=PROPERTY_DEFINITION_REPRESENTATION(#14,#12);
#11=PROPERTY_DEFINITION_REPRESENTATION(#15,#13);
#12=REPRESENTATION('',(#16),#461);
#13=REPRESENTATION('',(#17),#461);
#14=PROPERTY_DEFINITION('pmi validation property','',#466);
#15=PROPERTY_DEFINITION('pmi validation property','',#466);
#16=VALUE_REPRESENTATION_ITEM('number of annotations',COUNT_MEASURE(0.));
#17=VALUE_REPRESENTATION_ITEM('number of views',COUNT_MEASURE(0.));
#18=SHAPE_REPRESENTATION_RELATIONSHIP('','',#287,#19);
#19=ADVANCED_BREP_SHAPE_REPRESENTATION('',(#285),#461);
#20=CIRCLE('',#291,7.);
#21=CIRCLE('',#292,7.);
#22=CIRCLE('',#295,7.);
#23=CIRCLE('',#296,7.);
#24=CIRCLE('',#302,2.5);
#25=CIRCLE('',#303,2.5);
#26=CIRCLE('',#305,2.5);
#27=CIRCLE('',#306,2.5);
#28=CIRCLE('',#308,2.5);
#29=CIRCLE('',#309,2.5);
#30=CIRCLE('',#311,2.5);
#31=CIRCLE('',#312,2.5);
#32=CYLINDRICAL_SURFACE('',#290,7.);
#33=CYLINDRICAL_SURFACE('',#294,7.);
#34=CYLINDRICAL_SURFACE('',#301,2.5);
#35=CYLINDRICAL_SURFACE('',#304,2.5);
#36=CYLINDRICAL_SURFACE('',#307,2.5);
#37=CYLINDRICAL_SURFACE('',#310,2.5);
#38=ORIENTED_EDGE('',*,*,#102,.T.);
#39=ORIENTED_EDGE('',*,*,#103,.F.);
#40=ORIENTED_EDGE('',*,*,#104,.F.);
#41=ORIENTED_EDGE('',*,*,#105,.T.);
#42=ORIENTED_EDGE('',*,*,#106,.T.);
#43=ORIENTED_EDGE('',*,*,#107,.F.);
#44=ORIENTED_EDGE('',*,*,#108,.F.);
#45=ORIENTED_EDGE('',*,*,#103,.T.);
#46=ORIENTED_EDGE('',*,*,#109,.T.);
#47=ORIENTED_EDGE('',*,*,#110,.F.);
#48=ORIENTED_EDGE('',*,*,#111,.F.);
#49=ORIENTED_EDGE('',*,*,#107,.T.);
#50=ORIENTED_EDGE('',*,*,#112,.T.);
#51=ORIENTED_EDGE('',*,*,#105,.F.);
#52=ORIENTED_EDGE('',*,*,#113,.F.);
#53=ORIENTED_EDGE('',*,*,#110,.T.);
#54=ORIENTED_EDGE('',*,*,#114,.T.);
#55=ORIENTED_EDGE('',*,*,#115,.F.);
#56=ORIENTED_EDGE('',*,*,#116,.F.);
#57=ORIENTED_EDGE('',*,*,#117,.T.);
#58=ORIENTED_EDGE('',*,*,#118,.T.);
#59=ORIENTED_EDGE('',*,*,#119,.F.);
#60=ORIENTED_EDGE('',*,*,#120,.F.);
#61=ORIENTED_EDGE('',*,*,#115,.T.);
#62=ORIENTED_EDGE('',*,*,#121,.T.);
#63=ORIENTED_EDGE('',*,*,#122,.F.);
#64=ORIENTED_EDGE('',*,*,#123,.F.);
#65=ORIENTED_EDGE('',*,*,#119,.T.);
#66=ORIENTED_EDGE('',*,*,#124,.T.);
#67=ORIENTED_EDGE('',*,*,#117,.F.);
#68=ORIENTED_EDGE('',*,*,#125,.F.);
#69=ORIENTED_EDGE('',*,*,#122,.T.);
#70=ORIENTED_EDGE('',*,*,#126,.F.);
#71=ORIENTED_EDGE('',*,*,#127,.T.);
#72=ORIENTED_EDGE('',*,*,#128,.F.);
#73=ORIENTED_EDGE('',*,*,#129,.T.);
#74=ORIENTED_EDGE('',*,*,#130,.F.);
#75=ORIENTED_EDGE('',*,*,#131,.T.);
#76=ORIENTED_EDGE('',*,*,#132,.F.);
#77=ORIENTED_EDGE('',*,*,#133,.T.);
#78=ORIENTED_EDGE('',*,*,#132,.T.);
#79=ORIENTED_EDGE('',*,*,#130,.T.);
#80=ORIENTED_EDGE('',*,*,#128,.T.);
#81=ORIENTED_EDGE('',*,*,#126,.T.);
#82=ORIENTED_EDGE('',*,*,#116,.T.);
#83=ORIENTED_EDGE('',*,*,#120,.T.);
#84=ORIENTED_EDGE('',*,*,#123,.T.);
#85=ORIENTED_EDGE('',*,*,#125,.T.);
#86=ORIENTED_EDGE('',*,*,#104,.T.);
#87=ORIENTED_EDGE('',*,*,#108,.T.);
#88=ORIENTED_EDGE('',*,*,#111,.T.);
#89=ORIENTED_EDGE('',*,*,#113,.T.);
#90=ORIENTED_EDGE('',*,*,#133,.F.);
#91=ORIENTED_EDGE('',*,*,#131,.F.);
#92=ORIENTED_EDGE('',*,*,#129,.F.);
#93=ORIENTED_EDGE('',*,*,#127,.F.);
#94=ORIENTED_EDGE('',*,*,#114,.F.);
#95=ORIENTED_EDGE('',*,*,#124,.F.);
#96=ORIENTED_EDGE('',*,*,#121,.F.);
#97=ORIENTED_EDGE('',*,*,#118,.F.);
#98=ORIENTED_EDGE('',*,*,#102,.F.);
#99=ORIENTED_EDGE('',*,*,#112,.F.);
#100=ORIENTED_EDGE('',*,*,#109,.F.);
#101=ORIENTED_EDGE('',*,*,#106,.F.);
#102=EDGE_CURVE('',#134,#135,#158,.T.);
#103=EDGE_CURVE('',#136,#135,#159,.T.);
#104=EDGE_CURVE('',#137,#136,#160,.T.);
#105=EDGE_CURVE('',#137,#134,#161,.T.);
#106=EDGE_CURVE('',#135,#138,#20,.T.);
#107=EDGE_CURVE('',#139,#138,#162,.T.);
#108=EDGE_CURVE('',#136,#139,#21,.T.);
#109=EDGE_CURVE('',#138,#140,#163,.T.);
#110=EDGE_CURVE('',#141,#140,#164,.T.);
#111=EDGE_CURVE('',#139,#141,#165,.T.);
#112=EDGE_CURVE('',#140,#134,#22,.T.);
#113=EDGE_CURVE('',#141,#137,#23,.T.);
#114=EDGE_CURVE('',#142,#143,#166,.T.);
#115=EDGE_CURVE('',#144,#143,#167,.T.);
#116=EDGE_CURVE('',#145,#144,#168,.T.);
#117=EDGE_CURVE('',#145,#142,#169,.T.);
#118=EDGE_CURVE('',#143,#146,#170,.T.);
#119=EDGE_CURVE('',#147,#146,#171,.T.);
#120=EDGE_CURVE('',#144,#147,#172,.T.);
#121=EDGE_CURVE('',#146,#148,#173,.T.);
#122=EDGE_CURVE('',#149,#148,#174,.T.);
#123=EDGE_CURVE('',#147,#149,#175,.T.);
#124=EDGE_CURVE('',#148,#142,#176,.T.);
#125=EDGE_CURVE('',#149,#145,#177,.T.);
#126=EDGE_CURVE('',#150,#150,#24,.T.);
#127=EDGE_CURVE('',#151,#151,#25,.T.);
#128=EDGE_CURVE('',#152,#152,#26,.T.);
#129=EDGE_CURVE('',#153,#153,#27,.T.);
#130=EDGE_CURVE('',#154,#154,#28,.T.);
#131=EDGE_CURVE('',#155,#155,#29,.T.);
#132=EDGE_CURVE('',#156,#156,#30,.T.);
#133=EDGE_CURVE('',#157,#157,#31,.T.);
#134=VERTEX_POINT('',#392);
#135=VERTEX_POINT('',#393);
#136=VERTEX_POINT('',#395);
#137=VERTEX_POINT('',#397);
#138=VERTEX_POINT('',#401);
#139=VERTEX_POINT('',#403);
#140=VERTEX_POINT('',#407);
#141=VERTEX_POINT('',#409);
#142=VERTEX_POINT('',#416);
#143=VERTEX_POINT('',#417);
#144=VERTEX_POINT('',#419);
#145=VERTEX_POINT('',#421);
#146=VERTEX_POINT('',#425);
#147=VERTEX_POINT('',#427);
#148=VERTEX_POINT('',#431);
#149=VERTEX_POINT('',#433);
#150=VERTEX_POINT('',#440);
#151=VERTEX_POINT('',#442);
#152=VERTEX_POINT('',#445);
#153=VERTEX_POINT('',#447);
#154=VERTEX_POINT('',#450);
#155=VERTEX_POINT('',#452);
#156=VERTEX_POINT('',#455);
#157=VERTEX_POINT('',#457);
#158=LINE('',#391,#178);
#159=LINE('',#394,#179);
#160=LINE('',#396,#180);
#161=LINE('',#398,#181);
#162=LINE('',#402,#182);
#163=LINE('',#406,#183);
#164=LINE('',#408,#184);
#165=LINE('',#410,#185);
#166=LINE('',#415,#186);
#167=LINE('',#418,#187);
#168=LINE('',#420,#188);
#169=LINE('',#422,#189);
#170=LINE('',#424,#190);
#171=LINE('',#426,#191);
#172=LINE('',#428,#192);
#173=LINE('',#430,#193);
#174=LINE('',#432,#194);
#175=LINE('',#434,#195);
#176=LINE('',#436,#196);
#177=LINE('',#437,#197);
#178=VECTOR('',#319,1000.);
#179=VECTOR('',#320,1000.);
#180=VECTOR('',#321,1000.);
#181=VECTOR('',#322,1000.);
#182=VECTOR('',#327,1000.);
#183=VECTOR('',#332,1000.);
#184=VECTOR('',#333,1000.);
#185=VECTOR('',#334,1000.);
#186=VECTOR('',#343,1000.);
#187=VECTOR('',#344,1000.);
#188=VECTOR('',#345,1000.);
#189=VECTOR('',#346,1000.);
#190=VECTOR('',#349,1000.);
#191=VECTOR('',#350,1000.);
#192=VECTOR('',#351,1000.);
#193=VECTOR('',#354,1000.);
#194=VECTOR('',#355,1000.);
#195=VECTOR('',#356,1000.);
#196=VECTOR('',#359,1000.);
#197=VECTOR('',#360,1000.);
#198=EDGE_LOOP('',(#38,#39,#40,#41));
#199=EDGE_LOOP('',(#42,#43,#44,#45));
#200=EDGE_LOOP('',(#46,#47,#48,#49));
#201=EDGE_LOOP('',(#50,#51,#52,#53));
#202=EDGE_LOOP('',(#54,#55,#56,#57));
#203=EDGE_LOOP('',(#58,#59,#60,#61));
#204=EDGE_LOOP('',(#62,#63,#64,#65));
#205=EDGE_LOOP('',(#66,#67,#68,#69));
#206=EDGE_LOOP('',(#70));
#207=EDGE_LOOP('',(#71));
#208=EDGE_LOOP('',(#72));
#209=EDGE_LOOP('',(#73));
#210=EDGE_LOOP('',(#74));
#211=EDGE_LOOP('',(#75));
#212=EDGE_LOOP('',(#76));
#213=EDGE_LOOP('',(#77));
#214=EDGE_LOOP('',(#78));
#215=EDGE_LOOP('',(#79));
#216=EDGE_LOOP('',(#80));
#217=EDGE_LOOP('',(#81));
#218=EDGE_LOOP('',(#82,#83,#84,#85));
#219=EDGE_LOOP('',(#86,#87,#88,#89));
#220=EDGE_LOOP('',(#90));
#221=EDGE_LOOP('',(#91));
#222=EDGE_LOOP('',(#92));
#223=EDGE_LOOP('',(#93));
#224=EDGE_LOOP('',(#94,#95,#96,#97));
#225=EDGE_LOOP('',(#98,#99,#100,#101));
#226=FACE_BOUND('',#198,.T.);
#227=FACE_BOUND('',#199,.T.);
#228=FACE_BOUND('',#200,.T.);
#229=FACE_BOUND('',#201,.T.);
#230=FACE_BOUND('',#202,.T.);
#231=FACE_BOUND('',#203,.T.);
#232=FACE_BOUND('',#204,.T.);
#233=FACE_BOUND('',#205,.T.);
#234=FACE_BOUND('',#206,.T.);
#235=FACE_BOUND('',#207,.T.);
#236=FACE_BOUND('',#208,.T.);
#237=FACE_BOUND('',#209,.T.);
#238=FACE_BOUND('',#210,.T.);
#239=FACE_BOUND('',#211,.T.);
#240=FACE_BOUND('',#212,.T.);
#241=FACE_BOUND('',#213,.T.);
#242=FACE_BOUND('',#214,.T.);
#243=FACE_BOUND('',#215,.T.);
#244=FACE_BOUND('',#216,.T.);
#245=FACE_BOUND('',#217,.T.);
#246=FACE_BOUND('',#218,.T.);
#247=FACE_BOUND('',#219,.T.);
#248=FACE_BOUND('',#220,.T.);
#249=FACE_BOUND('',#221,.T.);
#250=FACE_BOUND('',#222,.T.);
#251=FACE_BOUND('',#223,.T.);
#252=FACE_BOUND('',#224,.T.);
#253=FACE_BOUND('',#225,.T.);
#254=PLANE('',#289);
#255=PLANE('',#293);
#256=PLANE('',#297);
#257=PLANE('',#298);
#258=PLANE('',#299);
#259=PLANE('',#300);
#260=PLANE('',#313);
#261=PLANE('',#314);
#262=ADVANCED_FACE('',(#226),#254,.F.);
#263=ADVANCED_FACE('',(#227),#32,.F.);
#264=ADVANCED_FACE('',(#228),#255,.F.);
#265=ADVANCED_FACE('',(#229),#33,.F.);
#266=ADVANCED_FACE('',(#230),#256,.F.);
#267=ADVANCED_FACE('',(#231),#257,.F.);
#268=ADVANCED_FACE('',(#232),#258,.F.);
#269=ADVANCED_FACE('',(#233),#259,.F.);
#270=ADVANCED_FACE('',(#234,#235),#34,.F.);
#271=ADVANCED_FACE('',(#236,#237),#35,.F.);
#272=ADVANCED_FACE('',(#238,#239),#36,.F.);
#273=ADVANCED_FACE('',(#240,#241),#37,.F.);
#274=ADVANCED_FACE('',(#242,#243,#244,#245,#246,#247),#260,.T.);
#275=ADVANCED_FACE('',(#248,#249,#250,#251,#252,#253),#261,.F.);
#276=CLOSED_SHELL('',(#262,#263,#264,#265,#266,#267,#268,#269,#270,#271,
#272,#273,#274,#275));
#277=STYLED_ITEM('',(#278),#285);
#278=PRESENTATION_STYLE_ASSIGNMENT((#279));
#279=SURFACE_STYLE_USAGE(.BOTH.,#280);
#280=SURFACE_SIDE_STYLE('',(#281));
#281=SURFACE_STYLE_FILL_AREA(#282);
#282=FILL_AREA_STYLE('',(#283));
#283=FILL_AREA_STYLE_COLOUR('',#284);
#284=COLOUR_RGB('',0.506983280181885,0.531564235687256,0.550000011920929);
#285=MANIFOLD_SOLID_BREP('',#276);
#286=SHAPE_DEFINITION_REPRESENTATION(#466,#287);
#287=SHAPE_REPRESENTATION('axle block',(#288),#461);
#288=AXIS2_PLACEMENT_3D('',#389,#315,#316);
#289=AXIS2_PLACEMENT_3D('',#390,#317,#318);
#290=AXIS2_PLACEMENT_3D('',#399,#323,#324);
#291=AXIS2_PLACEMENT_3D('',#400,#325,#326);
#292=AXIS2_PLACEMENT_3D('',#404,#328,#329);
#293=AXIS2_PLACEMENT_3D('',#405,#330,#331);
#294=AXIS2_PLACEMENT_3D('',#411,#335,#336);
#295=AXIS2_PLACEMENT_3D('',#412,#337,#338);
#296=AXIS2_PLACEMENT_3D('',#413,#339,#340);
#297=AXIS2_PLACEMENT_3D('',#414,#341,#342);
#298=AXIS2_PLACEMENT_3D('',#423,#347,#348);
#299=AXIS2_PLACEMENT_3D('',#429,#352,#353);
#300=AXIS2_PLACEMENT_3D('',#435,#357,#358);
#301=AXIS2_PLACEMENT_3D('',#438,#361,#362);
#302=AXIS2_PLACEMENT_3D('',#439,#363,#364);
#303=AXIS2_PLACEMENT_3D('',#441,#365,#366);
#304=AXIS2_PLACEMENT_3D('',#443,#367,#368);
#305=AXIS2_PLACEMENT_3D('',#444,#369,#370);
#306=AXIS2_PLACEMENT_3D('',#446,#371,#372);
#307=AXIS2_PLACEMENT_3D('',#448,#373,#374);
#308=AXIS2_PLACEMENT_3D('',#449,#375,#376);
#309=AXIS2_PLACEMENT_3D('',#451,#377,#378);
#310=AXIS2_PLACEMENT_3D('',#453,#379,#380);
#311=AXIS2_PLACEMENT_3D('',#454,#381,#382);
#312=AXIS2_PLACEMENT_3D('',#456,#383,#384);
#313=AXIS2_PLACEMENT_3D('',#458,#385,#386);
#314=AXIS2_PLACEMENT_3D('',#459,#387,#388);
#315=DIRECTION('',(0.,0.,1.));
#316=DIRECTION('',(1.,0.,0.));
#317=DIRECTION('',(8.85247366868827E-17,0.,-1.));
#318=DIRECTION('',(-1.,0.,-8.85247366868827E-17));
#319=DIRECTION('',(-1.,0.,-8.85247366868827E-17));
#320=DIRECTION('',(0.,1.,0.));
#321=DIRECTION('',(-1.,0.,-8.85247366868827E-17));
#322=DIRECTION('',(0.,1.,0.));
#323=DIRECTION('',(0.,1.,0.));
#324=DIRECTION('',(0.,0.,1.));
#325=DIRECTION('',(0.,1.,0.));
#326=DIRECTION('',(1.,0.,0.));
#327=DIRECTION('',(0.,1.,0.));
#328=DIRECTION('',(0.,1.,0.));
#329=DIRECTION('',(1.,0.,0.));
#330=DIRECTION('',(-5.31148420121296E-16,0.,1.));
#331=DIRECTION('',(1.,0.,5.31148420121296E-16));
#332=DIRECTION('',(1.,0.,5.31148420121296E-16));
#333=DIRECTION('',(0.,1.,0.));
#334=DIRECTION('',(1.,0.,5.31148420121296E-16));
#335=DIRECTION('',(0.,1.,0.));
#336=DIRECTION('',(0.,0.,1.));
#337=DIRECTION('',(0.,1.,0.));
#338=DIRECTION('',(-1.,0.,0.));
#339=DIRECTION('',(0.,1.,0.));
#340=DIRECTION('',(1.,0.,0.));
#341=DIRECTION('',(-1.,0.,0.));
#342=DIRECTION('',(0.,0.,1.));
#343=DIRECTION('',(0.,0.,1.));
#344=DIRECTION('',(0.,1.,0.));
#345=DIRECTION('',(0.,0.,1.));
#346=DIRECTION('',(0.,1.,0.));
#347=DIRECTION('',(0.,0.,-1.));
#348=DIRECTION('',(-1.,0.,0.));
#349=DIRECTION('',(-1.,0.,0.));
#350=DIRECTION('',(0.,1.,0.));
#351=DIRECTION('',(-1.,0.,0.));
#352=DIRECTION('',(1.,0.,0.));
#353=DIRECTION('',(0.,0.,-1.));
#354=DIRECTION('',(0.,0.,-1.));
#355=DIRECTION('',(0.,1.,0.));
#356=DIRECTION('',(0.,0.,-1.));
#357=DIRECTION('',(0.,0.,1.));
#358=DIRECTION('',(1.,0.,0.));
#359=DIRECTION('',(1.,0.,0.));
#360=DIRECTION('',(1.,0.,0.));
#361=DIRECTION('',(0.,1.,0.));
#362=DIRECTION('',(0.,0.,1.));
#363=DIRECTION('',(0.,1.,0.));
#364=DIRECTION('',(1.,0.,0.));
#365=DIRECTION('',(0.,1.,0.));
#366=DIRECTION('',(1.,0.,0.));
#367=DIRECTION('',(0.,1.,0.));
#368=DIRECTION('',(0.,0.,1.));
#369=DIRECTION('',(0.,1.,0.));
#370=DIRECTION('',(1.,0.,0.));
#371=DIRECTION('',(0.,1.,0.));
#372=DIRECTION('',(1.,0.,0.));
#373=DIRECTION('',(0.,1.,0.));
#374=DIRECTION('',(0.,0.,1.));
#375=DIRECTION('',(0.,1.,0.));
#376=DIRECTION('',(1.,0.,0.));
#377=DIRECTION('',(0.,1.,0.));
#378=DIRECTION('',(1.,0.,0.));
#379=DIRECTION('',(0.,1.,0.));
#380=DIRECTION('',(0.,0.,1.));
#381=DIRECTION('',(0.,1.,0.));
#382=DIRECTION('',(1.,0.,0.));
#383=DIRECTION('',(0.,1.,0.));
#384=DIRECTION('',(1.,0.,0.));
#385=DIRECTION('',(0.,-1.,0.));
#386=DIRECTION('',(0.,0.,-1.));
#387=DIRECTION('',(0.,-1.,0.));
#388=DIRECTION('',(0.,0.,-1.));
#389=CARTESIAN_POINT('',(0.,0.,0.));
#390=CARTESIAN_POINT('',(4.89897948556636,-9.,-5.));
#391=CARTESIAN_POINT('',(4.89897948556636,0.,-5.));
#392=CARTESIAN_POINT('',(4.89897948556635,0.,-5.));
#393=CARTESIAN_POINT('',(-4.89897948556636,0.,-5.));
#394=CARTESIAN_POINT('',(-4.89897948556636,-9.,-5.));
#395=CARTESIAN_POINT('',(-4.89897948556636,-9.,-5.));
#396=CARTESIAN_POINT('',(4.89897948556636,-9.,-5.));
#397=CARTESIAN_POINT('',(4.89897948556635,-9.,-5.));
#398=CARTESIAN_POINT('',(4.89897948556635,-9.,-5.));
#399=CARTESIAN_POINT('',(0.,-9.,0.));
#400=CARTESIAN_POINT('',(0.,0.,0.));
#401=CARTESIAN_POINT('',(-4.89897948556636,0.,5.));
#402=CARTESIAN_POINT('',(-4.89897948556636,-9.,5.));
#403=CARTESIAN_POINT('',(-4.89897948556636,-9.,5.));
#404=CARTESIAN_POINT('',(0.,-9.,0.));
#405=CARTESIAN_POINT('',(-4.89897948556636,-9.,5.));
#406=CARTESIAN_POINT('',(-4.89897948556636,0.,5.));
#407=CARTESIAN_POINT('',(4.89897948556635,0.,5.));
#408=CARTESIAN_POINT('',(4.89897948556635,-9.,5.));
#409=CARTESIAN_POINT('',(4.89897948556635,-9.,5.));
#410=CARTESIAN_POINT('',(-4.89897948556636,-9.,5.));
#411=CARTESIAN_POINT('',(0.,-9.,0.));
#412=CARTESIAN_POINT('',(0.,0.,0.));
#413=CARTESIAN_POINT('',(0.,-9.,0.));
#414=CARTESIAN_POINT('',(35.,-9.,-20.));
#415=CARTESIAN_POINT('',(35.,0.,-20.));
#416=CARTESIAN_POINT('',(35.,0.,-20.));
#417=CARTESIAN_POINT('',(35.,0.,20.));
#418=CARTESIAN_POINT('',(35.,-9.,20.));
#419=CARTESIAN_POINT('',(35.,-9.,20.));
#420=CARTESIAN_POINT('',(35.,-9.,-20.));
#421=CARTESIAN_POINT('',(35.,-9.,-20.));
#422=CARTESIAN_POINT('',(35.,-9.,-20.));
#423=CARTESIAN_POINT('',(35.,-9.,20.));
#424=CARTESIAN_POINT('',(35.,0.,20.));
#425=CARTESIAN_POINT('',(-35.,0.,20.));
#426=CARTESIAN_POINT('',(-35.,-9.,20.));
#427=CARTESIAN_POINT('',(-35.,-9.,20.));
#428=CARTESIAN_POINT('',(35.,-9.,20.));
#429=CARTESIAN_POINT('',(-35.,-9.,20.));
#430=CARTESIAN_POINT('',(-35.,0.,20.));
#431=CARTESIAN_POINT('',(-35.,0.,-20.));
#432=CARTESIAN_POINT('',(-35.,-9.,-20.));
#433=CARTESIAN_POINT('',(-35.,-9.,-20.));
#434=CARTESIAN_POINT('',(-35.,-9.,20.));
#435=CARTESIAN_POINT('',(-35.,-9.,-20.));
#436=CARTESIAN_POINT('',(-35.,0.,-20.));
#437=CARTESIAN_POINT('',(-35.,-9.,-20.));
#438=CARTESIAN_POINT('',(25.,-9.,10.));
#439=CARTESIAN_POINT('',(25.,-9.,10.));
#440=CARTESIAN_POINT('',(27.5,-9.,10.));
#441=CARTESIAN_POINT('',(25.,0.,10.));
#442=CARTESIAN_POINT('',(27.5,0.,10.));
#443=CARTESIAN_POINT('',(-25.,-9.,-10.));
#444=CARTESIAN_POINT('',(-25.,-9.,-10.));
#445=CARTESIAN_POINT('',(-22.5,-9.,-10.));
#446=CARTESIAN_POINT('',(-25.,0.,-10.));
#447=CARTESIAN_POINT('',(-22.5,0.,-10.));
#448=CARTESIAN_POINT('',(-25.,-9.,10.));
#449=CARTESIAN_POINT('',(-25.,-9.,10.));
#450=CARTESIAN_POINT('',(-22.5,-9.,10.));
#451=CARTESIAN_POINT('',(-25.,0.,10.));
#452=CARTESIAN_POINT('',(-22.5,0.,10.));
#453=CARTESIAN_POINT('',(25.,-9.,-10.));
#454=CARTESIAN_POINT('',(25.,-9.,-10.));
#455=CARTESIAN_POINT('',(27.5,-9.,-10.));
#456=CARTESIAN_POINT('',(25.,0.,-10.));
#457=CARTESIAN_POINT('',(27.5,0.,-10.));
#458=CARTESIAN_POINT('',(0.,-9.,0.));
#459=CARTESIAN_POINT('',(0.,0.,0.));
#460=MECHANICAL_DESIGN_GEOMETRIC_PRESENTATION_REPRESENTATION('',(#277),
#461);
#461=(
GEOMETRIC_REPRESENTATION_CONTEXT(3)
GLOBAL_UNCERTAINTY_ASSIGNED_CONTEXT((#462))
GLOBAL_UNIT_ASSIGNED_CONTEXT((#465,#464,#463))
REPRESENTATION_CONTEXT('axle block','TOP_LEVEL_ASSEMBLY_PART')
);
#462=UNCERTAINTY_MEASURE_WITH_UNIT(LENGTH_MEASURE(0.005),#465,
'DISTANCE_ACCURACY_VALUE','Maximum Tolerance applied to model');
#463=(
NAMED_UNIT(*)
SI_UNIT($,.STERADIAN.)
SOLID_ANGLE_UNIT()
);
#464=(
NAMED_UNIT(*)
PLANE_ANGLE_UNIT()
SI_UNIT($,.RADIAN.)
);
#465=(
LENGTH_UNIT()
NAMED_UNIT(*)
SI_UNIT(.MILLI.,.METRE.)
);
#466=PRODUCT_DEFINITION_SHAPE('','',#467);
#467=PRODUCT_DEFINITION('','',#469,#468);
#468=PRODUCT_DEFINITION_CONTEXT('',#475,'design');
#469=PRODUCT_DEFINITION_FORMATION_WITH_SPECIFIED_SOURCE('','',#471,
 .NOT_KNOWN.);
#470=PRODUCT_RELATED_PRODUCT_CATEGORY('','',(#471));
#471=PRODUCT('axle block','axle block','axle block',(#473));
#472=PRODUCT_CATEGORY('','');
#473=PRODUCT_CONTEXT('',#475,'mechanical');
#474=APPLICATION_PROTOCOL_DEFINITION('international standard',
'automotive_design',2010,#475);
#475=APPLICATION_CONTEXT(
'core data for automotive mechanical design processes');
ENDSEC;
END-ISO-10303-21;
