ISO-10303-21;
HEADER;
/* Generated by software containing ST-Developer
 * from STEP Tools, Inc. (www.steptools.com) 
 */

FILE_DESCRIPTION(
/* description */ ('Alibre Inc.'),
/* implementation_level */ '2;1');

FILE_NAME(
/* name */ 'export-8BAFBE0F-990E-4C23-92A7-F09885CA944D',
/* time_stamp */ '2024-08-02T18:34:00+02:00',
/* author */ (''),
/* organization */ (''),
/* preprocessor_version */ 'ST-DEVELOPER v17',
/* originating_system */ 'Alibre',
/* authorisation */ '');

FILE_SCHEMA (('CONFIG_CONTROL_DESIGN'));
ENDSEC;

DATA;
#10=MECHANICAL_CONTEXT('detailed design',#18,'mechanical');
#11=PRODUCT_RELATED_PRODUCT_CATEGORY('detail','',(#98));
#12=CC_DESIGN_SECURITY_CLASSIFICATION(#14,(#97));
#13=SECURITY_CLASSIFICATION_LEVEL('unclassified');
#14=SECURITY_CLASSIFICATION('name','Security for version',#13);
#15=SHAPE_DEFINITION_REPRESENTATION(#16,#379);
#16=PRODUCT_DEFINITION_SHAPE('','DefinitionDesc',#96);
#17=APPLICATION_PROTOCOL_DEFINITION('AP definition status',
'config_control_design',1994,#18);
#18=APPLICATION_CONTEXT(
'control the configuration of three dimensional design');
#19=DESIGN_CONTEXT('detailed design',#18,'design');
#20=PERSON_AND_ORGANIZATION_ROLE('creator');
#21=PERSON_AND_ORGANIZATION_ROLE('classification_officer');
#22=PERSON_AND_ORGANIZATION_ROLE('creator');
#23=PERSON_AND_ORGANIZATION_ROLE('design_supplier');
#24=PERSON_AND_ORGANIZATION_ROLE('design_owner');
#25=CC_DESIGN_PERSON_AND_ORGANIZATION_ASSIGNMENT(#57,#20,(#96));
#26=CC_DESIGN_PERSON_AND_ORGANIZATION_ASSIGNMENT(#60,#21,(#14));
#27=CC_DESIGN_PERSON_AND_ORGANIZATION_ASSIGNMENT(#61,#22,(#97));
#28=CC_DESIGN_PERSON_AND_ORGANIZATION_ASSIGNMENT(#62,#23,(#97));
#29=CC_DESIGN_PERSON_AND_ORGANIZATION_ASSIGNMENT(#63,#24,(#98));
#30=DATE_TIME_ROLE('creation_date');
#31=DATE_TIME_ROLE('classification_date');
#32=CC_DESIGN_DATE_AND_TIME_ASSIGNMENT(#86,#30,(#96));
#33=CC_DESIGN_DATE_AND_TIME_ASSIGNMENT(#89,#31,(#14));
#34=CC_DESIGN_APPROVAL(#93,(#96));
#35=CC_DESIGN_APPROVAL(#94,(#97));
#36=CC_DESIGN_APPROVAL(#95,(#14));
#37=APPROVAL_PERSON_ORGANIZATION(#56,#93,#64);
#38=APPROVAL_PERSON_ORGANIZATION(#58,#94,#65);
#39=APPROVAL_PERSON_ORGANIZATION(#59,#95,#66);
#40=ORGANIZATION('DEFINITION_APPROVEDBY_ORG_ID',
'DEFINITION_APPROVEDBY_ORG_NAME','DEFINITION_APPROVEDBY_ORG_DESCR');
#41=ORGANIZATION('DEF_CREATOR_ORG_ID','DEF_CREATOR_ORG_NAME',
'DEF_CREATOR_ORG_DESCR');
#42=ORGANIZATION('APPROVEDBY_ORG_ID','APPROVEDBY_ORG_NAME',
'APPROVEDBY_ORG_DESCR');
#43=ORGANIZATION('SECURITY_APPROVEDBY_ORG_ID',
'SECURITY_APPROVEDBY_ORG_NAME','SECURITY_APPROVEDBY_ORG_DESCR');
#44=ORGANIZATION('CLASSOFFICER_ORG_ID','CLASSOFFICER_ORG_NAME',
'CLASSOFFICER_ORG_DESCR');
#45=ORGANIZATION('CREATOR_ORG_ID','CREATOR_ORG_NAME',
'CREATOR_ORG_DESCR');
#46=ORGANIZATION('SUPPLIER_ORG_ID','SUPPLIER_ORG_NAME',
'SUPPLIER_ORG_DESCR');
#47=ORGANIZATION('OWNER_ORG_ID','OWNER_ORG_NAME','OWNER_ORG_DESCR');
#48=PERSON('DEFINITION_approverID','DEFINITION_APPROVEDBY_LASTNAME',
'DEFINITION_APPROVEDBY_FIRSTNAME',$,$,$);
#49=PERSON('DEF_createrID','DEF_CREATOR_LASTNAME',
'DEF_CREATOR_FIRSTNAME',$,$,$);
#50=PERSON('approverID','APPROVEDBY_LASTNAME','APPROVEDBY_FIRSTNAME',$,
$,$);
#51=PERSON('SECURITY_approverID','SECURITY_LASTNAME',
'SECURITY_APPROVEDBY_FIRSTNAME',$,$,$);
#52=PERSON('classifierID','CLASSOFFICER_LASTNAME',
'CLASSOFFICER_FIRSTNAME',$,$,$);
#53=PERSON('createrID','CREATOR_LASTNAME','CREATOR_FIRSTNAME',$,$,$);
#54=PERSON('supplierID','SUPPLIER_LASTNAME','SUPPLIER_FIRSTNAME',$,$,$);
#55=PERSON('ownerID','OWNER_LASTNAME','OWNER_FIRSTNAME',$,$,$);
#56=PERSON_AND_ORGANIZATION(#48,#40);
#57=PERSON_AND_ORGANIZATION(#49,#41);
#58=PERSON_AND_ORGANIZATION(#50,#42);
#59=PERSON_AND_ORGANIZATION(#51,#43);
#60=PERSON_AND_ORGANIZATION(#52,#44);
#61=PERSON_AND_ORGANIZATION(#53,#45);
#62=PERSON_AND_ORGANIZATION(#54,#46);
#63=PERSON_AND_ORGANIZATION(#55,#47);
#64=APPROVAL_ROLE('definition_approval');
#65=APPROVAL_ROLE('version_approval');
#66=APPROVAL_ROLE('security_approval');
#67=APPROVAL_DATE_TIME(#85,#93);
#68=APPROVAL_DATE_TIME(#87,#94);
#69=APPROVAL_DATE_TIME(#88,#95);
#70=COORDINATED_UNIVERSAL_TIME_OFFSET(2,0,.AHEAD.);
#71=COORDINATED_UNIVERSAL_TIME_OFFSET(2,0,.AHEAD.);
#72=COORDINATED_UNIVERSAL_TIME_OFFSET(2,0,.AHEAD.);
#73=COORDINATED_UNIVERSAL_TIME_OFFSET(2,0,.AHEAD.);
#74=COORDINATED_UNIVERSAL_TIME_OFFSET(2,0,.AHEAD.);
#75=LOCAL_TIME(17,50,41.,#70);
#76=LOCAL_TIME(17,50,41.,#71);
#77=LOCAL_TIME(17,50,41.,#72);
#78=LOCAL_TIME(17,50,41.,#73);
#79=LOCAL_TIME(17,50,41.,#74);
#80=CALENDAR_DATE(2024,2,8);
#81=CALENDAR_DATE(2024,2,8);
#82=CALENDAR_DATE(2024,2,8);
#83=CALENDAR_DATE(2024,2,8);
#84=CALENDAR_DATE(2024,2,8);
#85=DATE_AND_TIME(#80,#75);
#86=DATE_AND_TIME(#81,#76);
#87=DATE_AND_TIME(#82,#77);
#88=DATE_AND_TIME(#83,#78);
#89=DATE_AND_TIME(#84,#79);
#90=APPROVAL_STATUS('not_yet_approved');
#91=APPROVAL_STATUS('not_yet_approved');
#92=APPROVAL_STATUS('not_yet_approved');
#93=APPROVAL(#90,'defintion approval');
#94=APPROVAL(#91,'version approval');
#95=APPROVAL(#92,'security approval');
#96=PRODUCT_DEFINITION('DefinitionID','DefinitionDesc',#97,#19);
#97=PRODUCT_DEFINITION_FORMATION_WITH_SPECIFIED_SOURCE(
'PRODUCT_VERSION_ID','PRODUCT_VERSION_DESCR',#98,.NOT_KNOWN.);
#98=PRODUCT('','Level_sensor_threaded_plate','',(#10));
#99=(
LENGTH_UNIT()
NAMED_UNIT(*)
SI_UNIT(.MILLI.,.METRE.)
);
#100=(
NAMED_UNIT(*)
PLANE_ANGLE_UNIT()
SI_UNIT($,.RADIAN.)
);
#101=(
NAMED_UNIT(*)
SI_UNIT($,.STERADIAN.)
SOLID_ANGLE_UNIT()
);
#102=UNCERTAINTY_MEASURE_WITH_UNIT(LENGTH_MEASURE(1.E-6),#99,
'DISTANCE_ACCURACY_VALUE',
'Maximum model space distance between geometric entities at asserted c
onnectivities');
#103=(
GEOMETRIC_REPRESENTATION_CONTEXT(3)
GLOBAL_UNCERTAINTY_ASSIGNED_CONTEXT((#102))
GLOBAL_UNIT_ASSIGNED_CONTEXT((#101,#100,#99))
REPRESENTATION_CONTEXT('ID1','3D')
);
#104=PLANE('',#257);
#105=PLANE('',#261);
#106=PLANE('',#265);
#107=PLANE('',#269);
#108=PLANE('',#273);
#109=PLANE('',#277);
#110=PLANE('',#278);
#111=VERTEX_POINT('',#330);
#112=VERTEX_POINT('',#332);
#113=VERTEX_POINT('',#335);
#114=VERTEX_POINT('',#337);
#115=VERTEX_POINT('',#341);
#116=VERTEX_POINT('',#343);
#117=VERTEX_POINT('',#347);
#118=VERTEX_POINT('',#349);
#119=VERTEX_POINT('',#353);
#120=VERTEX_POINT('',#355);
#121=VERTEX_POINT('',#359);
#122=VERTEX_POINT('',#361);
#123=VERTEX_POINT('',#365);
#124=VERTEX_POINT('',#367);
#125=CIRCLE('',#252,15.);
#126=CIRCLE('',#253,15.);
#127=CIRCLE('',#255,2.458734);
#128=CIRCLE('',#256,2.458734);
#129=CIRCLE('',#259,2.458734);
#130=CIRCLE('',#260,2.458734);
#131=CIRCLE('',#263,2.458734);
#132=CIRCLE('',#264,2.458734);
#133=CIRCLE('',#267,2.458734);
#134=CIRCLE('',#268,2.458734);
#135=CIRCLE('',#271,16.764);
#136=CIRCLE('',#272,16.764);
#137=CIRCLE('',#275,40.);
#138=CIRCLE('',#276,40.);
#139=EDGE_CURVE('',#111,#111,#125,.T.);
#140=EDGE_CURVE('',#112,#112,#126,.T.);
#141=EDGE_CURVE('',#113,#113,#127,.T.);
#142=EDGE_CURVE('',#114,#114,#128,.T.);
#143=EDGE_CURVE('',#115,#115,#129,.T.);
#144=EDGE_CURVE('',#116,#116,#130,.T.);
#145=EDGE_CURVE('',#117,#117,#131,.T.);
#146=EDGE_CURVE('',#118,#118,#132,.T.);
#147=EDGE_CURVE('',#119,#119,#133,.T.);
#148=EDGE_CURVE('',#120,#120,#134,.T.);
#149=EDGE_CURVE('',#121,#121,#135,.T.);
#150=EDGE_CURVE('',#122,#122,#136,.T.);
#151=EDGE_CURVE('',#123,#123,#137,.T.);
#152=EDGE_CURVE('',#124,#124,#138,.T.);
#153=ORIENTED_EDGE('',*,*,#139,.F.);
#154=ORIENTED_EDGE('',*,*,#140,.F.);
#155=ORIENTED_EDGE('',*,*,#141,.F.);
#156=ORIENTED_EDGE('',*,*,#142,.F.);
#157=ORIENTED_EDGE('',*,*,#141,.T.);
#158=ORIENTED_EDGE('',*,*,#143,.F.);
#159=ORIENTED_EDGE('',*,*,#144,.F.);
#160=ORIENTED_EDGE('',*,*,#143,.T.);
#161=ORIENTED_EDGE('',*,*,#145,.F.);
#162=ORIENTED_EDGE('',*,*,#146,.F.);
#163=ORIENTED_EDGE('',*,*,#145,.T.);
#164=ORIENTED_EDGE('',*,*,#147,.F.);
#165=ORIENTED_EDGE('',*,*,#148,.F.);
#166=ORIENTED_EDGE('',*,*,#147,.T.);
#167=ORIENTED_EDGE('',*,*,#149,.F.);
#168=ORIENTED_EDGE('',*,*,#150,.F.);
#169=ORIENTED_EDGE('',*,*,#139,.T.);
#170=ORIENTED_EDGE('',*,*,#149,.T.);
#171=ORIENTED_EDGE('',*,*,#151,.T.);
#172=ORIENTED_EDGE('',*,*,#152,.T.);
#173=ORIENTED_EDGE('',*,*,#150,.T.);
#174=ORIENTED_EDGE('',*,*,#151,.F.);
#175=ORIENTED_EDGE('',*,*,#140,.T.);
#176=ORIENTED_EDGE('',*,*,#142,.T.);
#177=ORIENTED_EDGE('',*,*,#144,.T.);
#178=ORIENTED_EDGE('',*,*,#146,.T.);
#179=ORIENTED_EDGE('',*,*,#148,.T.);
#180=ORIENTED_EDGE('',*,*,#152,.F.);
#181=EDGE_LOOP('',(#153));
#182=EDGE_LOOP('',(#154));
#183=EDGE_LOOP('',(#155));
#184=EDGE_LOOP('',(#156));
#185=EDGE_LOOP('',(#157));
#186=EDGE_LOOP('',(#158));
#187=EDGE_LOOP('',(#159));
#188=EDGE_LOOP('',(#160));
#189=EDGE_LOOP('',(#161));
#190=EDGE_LOOP('',(#162));
#191=EDGE_LOOP('',(#163));
#192=EDGE_LOOP('',(#164));
#193=EDGE_LOOP('',(#165));
#194=EDGE_LOOP('',(#166));
#195=EDGE_LOOP('',(#167));
#196=EDGE_LOOP('',(#168));
#197=EDGE_LOOP('',(#169));
#198=EDGE_LOOP('',(#170));
#199=EDGE_LOOP('',(#171));
#200=EDGE_LOOP('',(#172));
#201=EDGE_LOOP('',(#173));
#202=EDGE_LOOP('',(#174));
#203=EDGE_LOOP('',(#175));
#204=EDGE_LOOP('',(#176));
#205=EDGE_LOOP('',(#177));
#206=EDGE_LOOP('',(#178));
#207=EDGE_LOOP('',(#179));
#208=EDGE_LOOP('',(#180));
#209=FACE_BOUND('',#181,.T.);
#210=FACE_BOUND('',#182,.T.);
#211=FACE_BOUND('',#183,.T.);
#212=FACE_BOUND('',#184,.T.);
#213=FACE_BOUND('',#185,.T.);
#214=FACE_BOUND('',#186,.T.);
#215=FACE_BOUND('',#187,.T.);
#216=FACE_BOUND('',#188,.T.);
#217=FACE_BOUND('',#189,.T.);
#218=FACE_BOUND('',#190,.T.);
#219=FACE_BOUND('',#191,.T.);
#220=FACE_BOUND('',#192,.T.);
#221=FACE_BOUND('',#193,.T.);
#222=FACE_BOUND('',#194,.T.);
#223=FACE_BOUND('',#195,.T.);
#224=FACE_BOUND('',#196,.T.);
#225=FACE_BOUND('',#197,.T.);
#226=FACE_BOUND('',#198,.T.);
#227=FACE_BOUND('',#199,.T.);
#228=FACE_BOUND('',#200,.T.);
#229=FACE_BOUND('',#201,.T.);
#230=FACE_BOUND('',#202,.T.);
#231=FACE_BOUND('',#203,.T.);
#232=FACE_BOUND('',#204,.T.);
#233=FACE_BOUND('',#205,.T.);
#234=FACE_BOUND('',#206,.T.);
#235=FACE_BOUND('',#207,.T.);
#236=FACE_BOUND('',#208,.T.);
#237=ADVANCED_FACE('',(#209,#210),#370,.F.);
#238=ADVANCED_FACE('',(#211,#212),#371,.F.);
#239=ADVANCED_FACE('',(#213),#104,.F.);
#240=ADVANCED_FACE('',(#214,#215),#372,.F.);
#241=ADVANCED_FACE('',(#216),#105,.F.);
#242=ADVANCED_FACE('',(#217,#218),#373,.F.);
#243=ADVANCED_FACE('',(#219),#106,.F.);
#244=ADVANCED_FACE('',(#220,#221),#374,.F.);
#245=ADVANCED_FACE('',(#222),#107,.F.);
#246=ADVANCED_FACE('',(#223,#224),#375,.F.);
#247=ADVANCED_FACE('',(#225,#226),#108,.F.);
#248=ADVANCED_FACE('',(#227,#228),#376,.T.);
#249=ADVANCED_FACE('',(#229,#230),#109,.T.);
#250=ADVANCED_FACE('',(#231,#232,#233,#234,#235,#236),#110,.F.);
#251=AXIS2_PLACEMENT_3D('',#328,#279,#280);
#252=AXIS2_PLACEMENT_3D('',#329,#281,#282);
#253=AXIS2_PLACEMENT_3D('',#331,#283,#284);
#254=AXIS2_PLACEMENT_3D('',#333,#285,#286);
#255=AXIS2_PLACEMENT_3D('',#334,#287,#288);
#256=AXIS2_PLACEMENT_3D('',#336,#289,#290);
#257=AXIS2_PLACEMENT_3D('',#338,#291,$);
#258=AXIS2_PLACEMENT_3D('',#339,#292,#293);
#259=AXIS2_PLACEMENT_3D('',#340,#294,#295);
#260=AXIS2_PLACEMENT_3D('',#342,#296,#297);
#261=AXIS2_PLACEMENT_3D('',#344,#298,$);
#262=AXIS2_PLACEMENT_3D('',#345,#299,#300);
#263=AXIS2_PLACEMENT_3D('',#346,#301,#302);
#264=AXIS2_PLACEMENT_3D('',#348,#303,#304);
#265=AXIS2_PLACEMENT_3D('',#350,#305,$);
#266=AXIS2_PLACEMENT_3D('',#351,#306,#307);
#267=AXIS2_PLACEMENT_3D('',#352,#308,#309);
#268=AXIS2_PLACEMENT_3D('',#354,#310,#311);
#269=AXIS2_PLACEMENT_3D('',#356,#312,$);
#270=AXIS2_PLACEMENT_3D('',#357,#313,#314);
#271=AXIS2_PLACEMENT_3D('',#358,#315,#316);
#272=AXIS2_PLACEMENT_3D('',#360,#317,#318);
#273=AXIS2_PLACEMENT_3D('',#362,#319,$);
#274=AXIS2_PLACEMENT_3D('',#363,#320,#321);
#275=AXIS2_PLACEMENT_3D('',#364,#322,#323);
#276=AXIS2_PLACEMENT_3D('',#366,#324,#325);
#277=AXIS2_PLACEMENT_3D('',#368,#326,$);
#278=AXIS2_PLACEMENT_3D('',#369,#327,$);
#279=DIRECTION('',(0.,0.,1.));
#280=DIRECTION('',(15.,0.,0.));
#281=DIRECTION('',(0.,0.,-1.));
#282=DIRECTION('',(15.,0.,0.));
#283=DIRECTION('',(0.,0.,1.));
#284=DIRECTION('',(15.,0.,0.));
#285=DIRECTION('',(0.,0.,1.));
#286=DIRECTION('',(2.458734,0.,0.));
#287=DIRECTION('',(0.,0.,-1.));
#288=DIRECTION('',(2.458734,0.,0.));
#289=DIRECTION('',(0.,0.,1.));
#290=DIRECTION('',(2.458734,0.,0.));
#291=DIRECTION('',(0.,0.,1.));
#292=DIRECTION('',(0.,0.,1.));
#293=DIRECTION('',(2.458734,0.,0.));
#294=DIRECTION('',(0.,0.,-1.));
#295=DIRECTION('',(2.458734,0.,0.));
#296=DIRECTION('',(0.,0.,1.));
#297=DIRECTION('',(2.458734,0.,0.));
#298=DIRECTION('',(0.,0.,1.));
#299=DIRECTION('',(0.,0.,1.));
#300=DIRECTION('',(2.458734,0.,0.));
#301=DIRECTION('',(0.,0.,-1.));
#302=DIRECTION('',(2.458734,0.,0.));
#303=DIRECTION('',(0.,0.,1.));
#304=DIRECTION('',(2.458734,0.,0.));
#305=DIRECTION('',(0.,0.,1.));
#306=DIRECTION('',(0.,0.,1.));
#307=DIRECTION('',(2.458734,0.,0.));
#308=DIRECTION('',(0.,0.,-1.));
#309=DIRECTION('',(2.458734,0.,0.));
#310=DIRECTION('',(0.,0.,1.));
#311=DIRECTION('',(2.458734,0.,0.));
#312=DIRECTION('',(0.,0.,1.));
#313=DIRECTION('',(0.,0.,-1.));
#314=DIRECTION('',(0.,16.764,0.));
#315=DIRECTION('',(0.,0.,1.));
#316=DIRECTION('',(0.,16.764,0.));
#317=DIRECTION('',(0.,0.,-1.));
#318=DIRECTION('',(0.,16.764,0.));
#319=DIRECTION('',(0.,0.,-1.));
#320=DIRECTION('',(0.,0.,1.));
#321=DIRECTION('',(40.,0.,0.));
#322=DIRECTION('',(0.,0.,-1.));
#323=DIRECTION('',(40.,0.,0.));
#324=DIRECTION('',(0.,0.,1.));
#325=DIRECTION('',(40.,0.,0.));
#326=DIRECTION('',(0.,0.,1.));
#327=DIRECTION('',(0.,0.,1.));
#328=CARTESIAN_POINT('',(0.,0.,0.));
#329=CARTESIAN_POINT('',(0.,0.,15.));
#330=CARTESIAN_POINT('',(-15.,1.83697019872103E-15,15.));
#331=CARTESIAN_POINT('',(0.,0.,0.));
#332=CARTESIAN_POINT('',(15.,0.,0.));
#333=CARTESIAN_POINT('',(32.5,0.,0.));
#334=CARTESIAN_POINT('',(32.5,0.,10.));
#335=CARTESIAN_POINT('',(34.958734,0.,10.));
#336=CARTESIAN_POINT('',(32.5,0.,0.));
#337=CARTESIAN_POINT('',(34.958734,0.,0.));
#338=CARTESIAN_POINT('',(32.5,0.,10.));
#339=CARTESIAN_POINT('',(-32.5,0.,0.));
#340=CARTESIAN_POINT('',(-32.5,0.,10.));
#341=CARTESIAN_POINT('',(-30.041266,0.,10.));
#342=CARTESIAN_POINT('',(-32.5,0.,0.));
#343=CARTESIAN_POINT('',(-30.041266,0.,0.));
#344=CARTESIAN_POINT('',(-32.5,0.,10.));
#345=CARTESIAN_POINT('',(0.,-32.5,0.));
#346=CARTESIAN_POINT('',(0.,-32.5,10.));
#347=CARTESIAN_POINT('',(2.458734,-32.5,10.));
#348=CARTESIAN_POINT('',(0.,-32.5,0.));
#349=CARTESIAN_POINT('',(2.458734,-32.5,0.));
#350=CARTESIAN_POINT('',(0.,-32.5,10.));
#351=CARTESIAN_POINT('',(0.,32.5,0.));
#352=CARTESIAN_POINT('',(0.,32.5,10.));
#353=CARTESIAN_POINT('',(2.458734,32.5,10.));
#354=CARTESIAN_POINT('',(0.,32.5,0.));
#355=CARTESIAN_POINT('',(2.458734,32.5,0.));
#356=CARTESIAN_POINT('',(0.,32.5,10.));
#357=CARTESIAN_POINT('',(0.,0.,40.));
#358=CARTESIAN_POINT('',(0.,0.,15.));
#359=CARTESIAN_POINT('',(0.,16.764,15.));
#360=CARTESIAN_POINT('',(0.,0.,40.));
#361=CARTESIAN_POINT('',(0.,16.764,40.));
#362=CARTESIAN_POINT('',(0.,0.,15.));
#363=CARTESIAN_POINT('',(0.,0.,0.));
#364=CARTESIAN_POINT('',(0.,0.,40.));
#365=CARTESIAN_POINT('',(40.,0.,40.));
#366=CARTESIAN_POINT('',(0.,0.,0.));
#367=CARTESIAN_POINT('',(40.,0.,0.));
#368=CARTESIAN_POINT('',(0.,0.,40.));
#369=CARTESIAN_POINT('',(0.,0.,0.));
#370=CYLINDRICAL_SURFACE('',#251,15.);
#371=CYLINDRICAL_SURFACE('',#254,2.458734);
#372=CYLINDRICAL_SURFACE('',#258,2.458734);
#373=CYLINDRICAL_SURFACE('',#262,2.458734);
#374=CYLINDRICAL_SURFACE('',#266,2.458734);
#375=CYLINDRICAL_SURFACE('',#270,16.764);
#376=CYLINDRICAL_SURFACE('',#274,40.);
#377=CLOSED_SHELL('',(#237,#238,#239,#240,#241,#242,#243,#244,#245,#246,
#247,#248,#249,#250));
#378=MANIFOLD_SOLID_BREP('',#377);
#379=ADVANCED_BREP_SHAPE_REPRESENTATION('',(#378),#103);
ENDSEC;
END-ISO-10303-21;
