ISO-10303-21;
HEADER;
/* Generated by software containing ST-Developer
 * from STEP Tools, Inc. (www.steptools.com) 
 */

FILE_DESCRIPTION(
/* description */ ('Alibre Inc.'),
/* implementation_level */ '2;1');

FILE_NAME(
/* name */ 'export-B30FE1A1-8ED2-4C46-8648-5D69DF89769B',
/* time_stamp */ '2024-08-17T19:20:51+02:00',
/* author */ (''),
/* organization */ (''),
/* preprocessor_version */ 'ST-DEVELOPER v17',
/* originating_system */ 'Alibre',
/* authorisation */ '');

FILE_SCHEMA (('CONFIG_CONTROL_DESIGN'));
ENDSEC;

DATA;
#10=MECHANICAL_CONTEXT('detailed design',#18,'mechanical');
#11=PRODUCT_RELATED_PRODUCT_CATEGORY('detail','',(#98));
#12=CC_DESIGN_SECURITY_CLASSIFICATION(#14,(#97));
#13=SECURITY_CLASSIFICATION_LEVEL('unclassified');
#14=SECURITY_CLASSIFICATION('name','Security for version',#13);
#15=SHAPE_DEFINITION_REPRESENTATION(#16,#638);
#16=PRODUCT_DEFINITION_SHAPE('','DefinitionDesc',#96);
#17=APPLICATION_PROTOCOL_DEFINITION('AP definition status',
'config_control_design',1994,#18);
#18=APPLICATION_CONTEXT(
'control the configuration of three dimensional design');
#19=DESIGN_CONTEXT('detailed design',#18,'design');
#20=PERSON_AND_ORGANIZATION_ROLE('creator');
#21=PERSON_AND_ORGANIZATION_ROLE('classification_officer');
#22=PERSON_AND_ORGANIZATION_ROLE('creator');
#23=PERSON_AND_ORGANIZATION_ROLE('design_supplier');
#24=PERSON_AND_ORGANIZATION_ROLE('design_owner');
#25=CC_DESIGN_PERSON_AND_ORGANIZATION_ASSIGNMENT(#57,#20,(#96));
#26=CC_DESIGN_PERSON_AND_ORGANIZATION_ASSIGNMENT(#60,#21,(#14));
#27=CC_DESIGN_PERSON_AND_ORGANIZATION_ASSIGNMENT(#61,#22,(#97));
#28=CC_DESIGN_PERSON_AND_ORGANIZATION_ASSIGNMENT(#62,#23,(#97));
#29=CC_DESIGN_PERSON_AND_ORGANIZATION_ASSIGNMENT(#63,#24,(#98));
#30=DATE_TIME_ROLE('creation_date');
#31=DATE_TIME_ROLE('classification_date');
#32=CC_DESIGN_DATE_AND_TIME_ASSIGNMENT(#86,#30,(#96));
#33=CC_DESIGN_DATE_AND_TIME_ASSIGNMENT(#89,#31,(#14));
#34=CC_DESIGN_APPROVAL(#93,(#96));
#35=CC_DESIGN_APPROVAL(#94,(#97));
#36=CC_DESIGN_APPROVAL(#95,(#14));
#37=APPROVAL_PERSON_ORGANIZATION(#56,#93,#64);
#38=APPROVAL_PERSON_ORGANIZATION(#58,#94,#65);
#39=APPROVAL_PERSON_ORGANIZATION(#59,#95,#66);
#40=ORGANIZATION('DEFINITION_APPROVEDBY_ORG_ID',
'DEFINITION_APPROVEDBY_ORG_NAME','DEFINITION_APPROVEDBY_ORG_DESCR');
#41=ORGANIZATION('DEF_CREATOR_ORG_ID','DEF_CREATOR_ORG_NAME',
'DEF_CREATOR_ORG_DESCR');
#42=ORGANIZATION('APPROVEDBY_ORG_ID','APPROVEDBY_ORG_NAME',
'APPROVEDBY_ORG_DESCR');
#43=ORGANIZATION('SECURITY_APPROVEDBY_ORG_ID',
'SECURITY_APPROVEDBY_ORG_NAME','SECURITY_APPROVEDBY_ORG_DESCR');
#44=ORGANIZATION('CLASSOFFICER_ORG_ID','CLASSOFFICER_ORG_NAME',
'CLASSOFFICER_ORG_DESCR');
#45=ORGANIZATION('CREATOR_ORG_ID','CREATOR_ORG_NAME',
'CREATOR_ORG_DESCR');
#46=ORGANIZATION('SUPPLIER_ORG_ID','SUPPLIER_ORG_NAME',
'SUPPLIER_ORG_DESCR');
#47=ORGANIZATION('OWNER_ORG_ID','OWNER_ORG_NAME','OWNER_ORG_DESCR');
#48=PERSON('DEFINITION_approverID','DEFINITION_APPROVEDBY_LASTNAME',
'DEFINITION_APPROVEDBY_FIRSTNAME',$,$,$);
#49=PERSON('DEF_createrID','DEF_CREATOR_LASTNAME',
'DEF_CREATOR_FIRSTNAME',$,$,$);
#50=PERSON('approverID','APPROVEDBY_LASTNAME','APPROVEDBY_FIRSTNAME',$,
$,$);
#51=PERSON('SECURITY_approverID','SECURITY_LASTNAME',
'SECURITY_APPROVEDBY_FIRSTNAME',$,$,$);
#52=PERSON('classifierID','CLASSOFFICER_LASTNAME',
'CLASSOFFICER_FIRSTNAME',$,$,$);
#53=PERSON('createrID','CREATOR_LASTNAME','CREATOR_FIRSTNAME',$,$,$);
#54=PERSON('supplierID','SUPPLIER_LASTNAME','SUPPLIER_FIRSTNAME',$,$,$);
#55=PERSON('ownerID','OWNER_LASTNAME','OWNER_FIRSTNAME',$,$,$);
#56=PERSON_AND_ORGANIZATION(#48,#40);
#57=PERSON_AND_ORGANIZATION(#49,#41);
#58=PERSON_AND_ORGANIZATION(#50,#42);
#59=PERSON_AND_ORGANIZATION(#51,#43);
#60=PERSON_AND_ORGANIZATION(#52,#44);
#61=PERSON_AND_ORGANIZATION(#53,#45);
#62=PERSON_AND_ORGANIZATION(#54,#46);
#63=PERSON_AND_ORGANIZATION(#55,#47);
#64=APPROVAL_ROLE('definition_approval');
#65=APPROVAL_ROLE('version_approval');
#66=APPROVAL_ROLE('security_approval');
#67=APPROVAL_DATE_TIME(#85,#93);
#68=APPROVAL_DATE_TIME(#87,#94);
#69=APPROVAL_DATE_TIME(#88,#95);
#70=COORDINATED_UNIVERSAL_TIME_OFFSET(2,0,.AHEAD.);
#71=COORDINATED_UNIVERSAL_TIME_OFFSET(2,0,.AHEAD.);
#72=COORDINATED_UNIVERSAL_TIME_OFFSET(2,0,.AHEAD.);
#73=COORDINATED_UNIVERSAL_TIME_OFFSET(2,0,.AHEAD.);
#74=COORDINATED_UNIVERSAL_TIME_OFFSET(2,0,.AHEAD.);
#75=LOCAL_TIME(10,7,40.,#70);
#76=LOCAL_TIME(10,7,40.,#71);
#77=LOCAL_TIME(10,7,40.,#72);
#78=LOCAL_TIME(10,7,40.,#73);
#79=LOCAL_TIME(10,7,40.,#74);
#80=CALENDAR_DATE(2024,17,8);
#81=CALENDAR_DATE(2024,17,8);
#82=CALENDAR_DATE(2024,17,8);
#83=CALENDAR_DATE(2024,17,8);
#84=CALENDAR_DATE(2024,17,8);
#85=DATE_AND_TIME(#80,#75);
#86=DATE_AND_TIME(#81,#76);
#87=DATE_AND_TIME(#82,#77);
#88=DATE_AND_TIME(#83,#78);
#89=DATE_AND_TIME(#84,#79);
#90=APPROVAL_STATUS('not_yet_approved');
#91=APPROVAL_STATUS('not_yet_approved');
#92=APPROVAL_STATUS('not_yet_approved');
#93=APPROVAL(#90,'defintion approval');
#94=APPROVAL(#91,'version approval');
#95=APPROVAL(#92,'security approval');
#96=PRODUCT_DEFINITION('DefinitionID','DefinitionDesc',#97,#19);
#97=PRODUCT_DEFINITION_FORMATION_WITH_SPECIFIED_SOURCE(
'PRODUCT_VERSION_ID','PRODUCT_VERSION_DESCR',#98,.NOT_KNOWN.);
#98=PRODUCT('','Support_nozzle_1400_variable_part1','',(#10));
#99=(
LENGTH_UNIT()
NAMED_UNIT(*)
SI_UNIT(.MILLI.,.METRE.)
);
#100=(
NAMED_UNIT(*)
PLANE_ANGLE_UNIT()
SI_UNIT($,.RADIAN.)
);
#101=(
NAMED_UNIT(*)
SI_UNIT($,.STERADIAN.)
SOLID_ANGLE_UNIT()
);
#102=UNCERTAINTY_MEASURE_WITH_UNIT(LENGTH_MEASURE(1.E-6),#99,
'DISTANCE_ACCURACY_VALUE',
'Maximum model space distance between geometric entities at asserted c
onnectivities');
#103=(
GEOMETRIC_REPRESENTATION_CONTEXT(3)
GLOBAL_UNCERTAINTY_ASSIGNED_CONTEXT((#102))
GLOBAL_UNIT_ASSIGNED_CONTEXT((#101,#100,#99))
REPRESENTATION_CONTEXT('ID1','3D')
);
#104=B_SPLINE_CURVE_WITH_KNOTS('',3,(#492,#493,#494,#495,#496,#497,#498,
#499,#500,#501,#502,#503,#504,#505,#506,#507,#508,#509,#510,#511,#512,#513,
#514,#515,#516,#517,#518),.UNSPECIFIED.,.F.,.U.,(4,3,2,2,2,2,2,2,2,2,2,
2,4),(-0.149522039459705,0.,0.149522039459705,0.29904407891941,0.598088157838821,
0.8798978209865,1.16170748413418,1.44351714728186,1.72532681042954,2.02437088934895,
2.17389292880866,2.32341496826836,2.47293700772807),.UNSPECIFIED.);
#105=B_SPLINE_CURVE_WITH_KNOTS('',3,(#534,#535,#536,#537,#538,#539,#540,
#541,#542,#543,#544,#545,#546,#547,#548,#549,#550,#551,#552,#553,#554,#555,
#556,#557,#558,#559,#560,#561,#562,#563,#564,#565,#566,#567,#568,#569,#570,
#571,#572,#573,#574,#575,#576,#577,#578,#579,#580,#581,#582,#583,#584,#585,
#586,#587,#588,#589,#590,#591),.UNSPECIFIED.,.T.,.U.,(4,2,2,2,2,2,2,2,2,
2,2,2,2,2,2,2,2,2,2,2,2,2,2,2,2,2,2,2,4),(0.,0.0839047540537986,0.167809508107597,
0.335619016215194,0.671238032430389,0.9584863055516,1.1021104421122,1.24573457867281,
1.38935871523342,1.53298285179402,1.82023112491523,2.15585014113043,2.32365964923802,
2.40756440329182,2.49146915734562,2.57537391139942,2.65927866545322,2.82708817356081,
3.16270718977601,3.44995546289722,3.59357959945783,3.73720373601843,3.88082787257904,
4.02445200913964,4.31170028226085,4.64731929847605,4.81512880658364,4.89903356063744,
4.98293831469124),.UNSPECIFIED.);
#106=VECTOR('',#419,1.);
#107=VECTOR('',#422,1.);
#108=VECTOR('',#427,1.);
#109=VECTOR('',#430,1.);
#110=VECTOR('',#431,1.);
#111=VECTOR('',#434,1.);
#112=VECTOR('',#440,1.);
#113=VECTOR('',#441,1.);
#114=VECTOR('',#442,1.);
#115=VECTOR('',#443,1.);
#116=VECTOR('',#448,1.);
#117=VECTOR('',#450,1.);
#118=VECTOR('',#451,1.);
#119=VECTOR('',#452,1.);
#120=VECTOR('',#453,1.);
#121=VECTOR('',#462,1.);
#122=VECTOR('',#463,1.);
#123=VECTOR('',#465,1.);
#124=VECTOR('',#466,1.);
#125=VECTOR('',#468,1.);
#126=LINE('',#483,#106);
#127=LINE('',#488,#107);
#128=LINE('',#521,#108);
#129=LINE('',#525,#109);
#130=LINE('',#526,#110);
#131=LINE('',#530,#111);
#132=LINE('',#593,#112);
#133=LINE('',#595,#113);
#134=LINE('',#597,#114);
#135=LINE('',#599,#115);
#136=LINE('',#603,#116);
#137=LINE('',#606,#117);
#138=LINE('',#608,#118);
#139=LINE('',#610,#119);
#140=LINE('',#612,#120);
#141=LINE('',#620,#121);
#142=LINE('',#622,#122);
#143=LINE('',#624,#123);
#144=LINE('',#626,#124);
#145=LINE('',#628,#125);
#146=PLANE('',#379);
#147=PLANE('',#383);
#148=PLANE('',#384);
#149=PLANE('',#392);
#150=PLANE('',#395);
#151=PLANE('',#396);
#152=PLANE('',#400);
#153=PLANE('',#401);
#154=PLANE('',#402);
#155=PLANE('',#403);
#156=VERTEX_POINT('',#472);
#157=VERTEX_POINT('',#474);
#158=VERTEX_POINT('',#478);
#159=VERTEX_POINT('',#480);
#160=VERTEX_POINT('',#484);
#161=VERTEX_POINT('',#485);
#162=VERTEX_POINT('',#487);
#163=VERTEX_POINT('',#489);
#164=VERTEX_POINT('',#519);
#165=VERTEX_POINT('',#520);
#166=VERTEX_POINT('',#522);
#167=VERTEX_POINT('',#524);
#168=VERTEX_POINT('',#527);
#169=VERTEX_POINT('',#529);
#170=VERTEX_POINT('',#533);
#171=VERTEX_POINT('',#594);
#172=VERTEX_POINT('',#596);
#173=VERTEX_POINT('',#598);
#174=VERTEX_POINT('',#602);
#175=VERTEX_POINT('',#605);
#176=VERTEX_POINT('',#607);
#177=VERTEX_POINT('',#609);
#178=VERTEX_POINT('',#611);
#179=VERTEX_POINT('',#615);
#180=VERTEX_POINT('',#618);
#181=VERTEX_POINT('',#621);
#182=VERTEX_POINT('',#625);
#183=CIRCLE('',#377,2.458734);
#184=CIRCLE('',#378,2.458734);
#185=CIRCLE('',#381,2.458734);
#186=CIRCLE('',#382,2.458734);
#187=CIRCLE('',#385,8.);
#188=CIRCLE('',#386,7.25);
#189=CIRCLE('',#388,8.);
#190=CIRCLE('',#389,7.25);
#191=CIRCLE('',#391,7.);
#192=CIRCLE('',#394,7.25);
#193=CIRCLE('',#397,4.);
#194=CIRCLE('',#399,4.);
#195=EDGE_CURVE('',#156,#156,#183,.T.);
#196=EDGE_CURVE('',#157,#157,#184,.T.);
#197=EDGE_CURVE('',#158,#158,#185,.T.);
#198=EDGE_CURVE('',#159,#159,#186,.T.);
#199=EDGE_CURVE('',#160,#161,#126,.T.);
#200=EDGE_CURVE('',#160,#162,#187,.T.);
#201=EDGE_CURVE('',#163,#162,#127,.T.);
#202=EDGE_CURVE('',#161,#163,#188,.T.);
#203=EDGE_CURVE('',#164,#160,#104,.T.);
#204=EDGE_CURVE('',#165,#164,#187,.T.);
#205=EDGE_CURVE('',#166,#165,#128,.T.);
#206=EDGE_CURVE('',#167,#166,#189,.T.);
#207=EDGE_CURVE('',#162,#167,#129,.T.);
#208=EDGE_CURVE('',#168,#164,#130,.T.);
#209=EDGE_CURVE('',#169,#168,#190,.T.);
#210=EDGE_CURVE('',#165,#169,#131,.T.);
#211=EDGE_CURVE('',#170,#170,#191,.T.);
#212=EDGE_CURVE('',#161,#168,#105,.T.);
#213=EDGE_CURVE('',#171,#167,#132,.T.);
#214=EDGE_CURVE('',#172,#171,#133,.T.);
#215=EDGE_CURVE('',#173,#172,#134,.T.);
#216=EDGE_CURVE('',#173,#163,#135,.T.);
#217=EDGE_CURVE('',#174,#173,#192,.T.);
#218=EDGE_CURVE('',#169,#174,#136,.T.);
#219=EDGE_CURVE('',#166,#175,#132,.T.);
#220=EDGE_CURVE('',#176,#175,#137,.T.);
#221=EDGE_CURVE('',#177,#176,#138,.T.);
#222=EDGE_CURVE('',#177,#171,#139,.T.);
#223=EDGE_CURVE('',#178,#174,#134,.T.);
#224=EDGE_CURVE('',#175,#178,#140,.T.);
#225=EDGE_CURVE('',#179,#179,#193,.T.);
#226=EDGE_CURVE('',#180,#180,#194,.T.);
#227=EDGE_CURVE('',#181,#178,#141,.T.);
#228=EDGE_CURVE('',#176,#181,#142,.T.);
#229=EDGE_CURVE('',#182,#172,#143,.T.);
#230=EDGE_CURVE('',#181,#182,#144,.T.);
#231=EDGE_CURVE('',#182,#177,#145,.T.);
#232=ORIENTED_EDGE('',*,*,#195,.F.);
#233=ORIENTED_EDGE('',*,*,#196,.F.);
#234=ORIENTED_EDGE('',*,*,#195,.T.);
#235=ORIENTED_EDGE('',*,*,#197,.F.);
#236=ORIENTED_EDGE('',*,*,#198,.F.);
#237=ORIENTED_EDGE('',*,*,#197,.T.);
#238=ORIENTED_EDGE('',*,*,#199,.F.);
#239=ORIENTED_EDGE('',*,*,#200,.T.);
#240=ORIENTED_EDGE('',*,*,#201,.F.);
#241=ORIENTED_EDGE('',*,*,#202,.F.);
#242=ORIENTED_EDGE('',*,*,#203,.F.);
#243=ORIENTED_EDGE('',*,*,#204,.F.);
#244=ORIENTED_EDGE('',*,*,#205,.F.);
#245=ORIENTED_EDGE('',*,*,#206,.F.);
#246=ORIENTED_EDGE('',*,*,#207,.F.);
#247=ORIENTED_EDGE('',*,*,#200,.F.);
#248=ORIENTED_EDGE('',*,*,#208,.F.);
#249=ORIENTED_EDGE('',*,*,#209,.F.);
#250=ORIENTED_EDGE('',*,*,#210,.F.);
#251=ORIENTED_EDGE('',*,*,#204,.T.);
#252=ORIENTED_EDGE('',*,*,#211,.F.);
#253=ORIENTED_EDGE('',*,*,#208,.T.);
#254=ORIENTED_EDGE('',*,*,#203,.T.);
#255=ORIENTED_EDGE('',*,*,#199,.T.);
#256=ORIENTED_EDGE('',*,*,#212,.T.);
#257=ORIENTED_EDGE('',*,*,#198,.T.);
#258=ORIENTED_EDGE('',*,*,#201,.T.);
#259=ORIENTED_EDGE('',*,*,#207,.T.);
#260=ORIENTED_EDGE('',*,*,#213,.F.);
#261=ORIENTED_EDGE('',*,*,#214,.F.);
#262=ORIENTED_EDGE('',*,*,#215,.F.);
#263=ORIENTED_EDGE('',*,*,#216,.T.);
#264=ORIENTED_EDGE('',*,*,#209,.T.);
#265=ORIENTED_EDGE('',*,*,#212,.F.);
#266=ORIENTED_EDGE('',*,*,#202,.T.);
#267=ORIENTED_EDGE('',*,*,#216,.F.);
#268=ORIENTED_EDGE('',*,*,#217,.F.);
#269=ORIENTED_EDGE('',*,*,#218,.F.);
#270=ORIENTED_EDGE('',*,*,#206,.T.);
#271=ORIENTED_EDGE('',*,*,#219,.T.);
#272=ORIENTED_EDGE('',*,*,#220,.F.);
#273=ORIENTED_EDGE('',*,*,#221,.F.);
#274=ORIENTED_EDGE('',*,*,#222,.T.);
#275=ORIENTED_EDGE('',*,*,#213,.T.);
#276=ORIENTED_EDGE('',*,*,#196,.T.);
#277=ORIENTED_EDGE('',*,*,#210,.T.);
#278=ORIENTED_EDGE('',*,*,#218,.T.);
#279=ORIENTED_EDGE('',*,*,#223,.F.);
#280=ORIENTED_EDGE('',*,*,#224,.F.);
#281=ORIENTED_EDGE('',*,*,#219,.F.);
#282=ORIENTED_EDGE('',*,*,#205,.T.);
#283=ORIENTED_EDGE('',*,*,#225,.F.);
#284=ORIENTED_EDGE('',*,*,#211,.T.);
#285=ORIENTED_EDGE('',*,*,#225,.T.);
#286=ORIENTED_EDGE('',*,*,#226,.F.);
#287=ORIENTED_EDGE('',*,*,#224,.T.);
#288=ORIENTED_EDGE('',*,*,#227,.F.);
#289=ORIENTED_EDGE('',*,*,#228,.F.);
#290=ORIENTED_EDGE('',*,*,#220,.T.);
#291=ORIENTED_EDGE('',*,*,#217,.T.);
#292=ORIENTED_EDGE('',*,*,#215,.T.);
#293=ORIENTED_EDGE('',*,*,#229,.F.);
#294=ORIENTED_EDGE('',*,*,#230,.F.);
#295=ORIENTED_EDGE('',*,*,#227,.T.);
#296=ORIENTED_EDGE('',*,*,#223,.T.);
#297=ORIENTED_EDGE('',*,*,#214,.T.);
#298=ORIENTED_EDGE('',*,*,#222,.F.);
#299=ORIENTED_EDGE('',*,*,#231,.F.);
#300=ORIENTED_EDGE('',*,*,#229,.T.);
#301=ORIENTED_EDGE('',*,*,#226,.T.);
#302=ORIENTED_EDGE('',*,*,#231,.T.);
#303=ORIENTED_EDGE('',*,*,#221,.T.);
#304=ORIENTED_EDGE('',*,*,#228,.T.);
#305=ORIENTED_EDGE('',*,*,#230,.T.);
#306=EDGE_LOOP('',(#232));
#307=EDGE_LOOP('',(#233));
#308=EDGE_LOOP('',(#234));
#309=EDGE_LOOP('',(#235));
#310=EDGE_LOOP('',(#236));
#311=EDGE_LOOP('',(#237));
#312=EDGE_LOOP('',(#238,#239,#240,#241));
#313=EDGE_LOOP('',(#242,#243,#244,#245,#246,#247));
#314=EDGE_LOOP('',(#248,#249,#250,#251));
#315=EDGE_LOOP('',(#252));
#316=EDGE_LOOP('',(#253,#254,#255,#256));
#317=EDGE_LOOP('',(#257));
#318=EDGE_LOOP('',(#258,#259,#260,#261,#262,#263));
#319=EDGE_LOOP('',(#264,#265,#266,#267,#268,#269));
#320=EDGE_LOOP('',(#270,#271,#272,#273,#274,#275));
#321=EDGE_LOOP('',(#276));
#322=EDGE_LOOP('',(#277,#278,#279,#280,#281,#282));
#323=EDGE_LOOP('',(#283));
#324=EDGE_LOOP('',(#284));
#325=EDGE_LOOP('',(#285));
#326=EDGE_LOOP('',(#286));
#327=EDGE_LOOP('',(#287,#288,#289,#290));
#328=EDGE_LOOP('',(#291,#292,#293,#294,#295,#296));
#329=EDGE_LOOP('',(#297,#298,#299,#300));
#330=EDGE_LOOP('',(#301));
#331=EDGE_LOOP('',(#302,#303,#304,#305));
#332=FACE_BOUND('',#306,.T.);
#333=FACE_BOUND('',#307,.T.);
#334=FACE_BOUND('',#308,.T.);
#335=FACE_BOUND('',#309,.T.);
#336=FACE_BOUND('',#310,.T.);
#337=FACE_BOUND('',#311,.T.);
#338=FACE_BOUND('',#312,.T.);
#339=FACE_BOUND('',#313,.T.);
#340=FACE_BOUND('',#314,.T.);
#341=FACE_BOUND('',#315,.T.);
#342=FACE_BOUND('',#316,.T.);
#343=FACE_BOUND('',#317,.T.);
#344=FACE_BOUND('',#318,.T.);
#345=FACE_BOUND('',#319,.T.);
#346=FACE_BOUND('',#320,.T.);
#347=FACE_BOUND('',#321,.T.);
#348=FACE_BOUND('',#322,.T.);
#349=FACE_BOUND('',#323,.T.);
#350=FACE_BOUND('',#324,.T.);
#351=FACE_BOUND('',#325,.T.);
#352=FACE_BOUND('',#326,.T.);
#353=FACE_BOUND('',#327,.T.);
#354=FACE_BOUND('',#328,.T.);
#355=FACE_BOUND('',#329,.T.);
#356=FACE_BOUND('',#330,.T.);
#357=FACE_BOUND('',#331,.T.);
#358=ADVANCED_FACE('',(#332,#333),#630,.F.);
#359=ADVANCED_FACE('',(#334),#146,.F.);
#360=ADVANCED_FACE('',(#335,#336),#631,.F.);
#361=ADVANCED_FACE('',(#337),#147,.F.);
#362=ADVANCED_FACE('',(#338),#148,.F.);
#363=ADVANCED_FACE('',(#339),#632,.F.);
#364=ADVANCED_FACE('',(#340),#148,.F.);
#365=ADVANCED_FACE('',(#341,#342),#633,.F.);
#366=ADVANCED_FACE('',(#343,#344),#149,.T.);
#367=ADVANCED_FACE('',(#345),#634,.F.);
#368=ADVANCED_FACE('',(#346),#150,.T.);
#369=ADVANCED_FACE('',(#347,#348),#149,.T.);
#370=ADVANCED_FACE('',(#349,#350),#151,.F.);
#371=ADVANCED_FACE('',(#351,#352),#635,.F.);
#372=ADVANCED_FACE('',(#353),#152,.T.);
#373=ADVANCED_FACE('',(#354),#153,.T.);
#374=ADVANCED_FACE('',(#355),#154,.T.);
#375=ADVANCED_FACE('',(#356,#357),#155,.F.);
#376=AXIS2_PLACEMENT_3D('',#470,#404,#405);
#377=AXIS2_PLACEMENT_3D('',#471,#406,#407);
#378=AXIS2_PLACEMENT_3D('',#473,#408,#409);
#379=AXIS2_PLACEMENT_3D('',#475,#410,$);
#380=AXIS2_PLACEMENT_3D('',#476,#411,#412);
#381=AXIS2_PLACEMENT_3D('',#477,#413,#414);
#382=AXIS2_PLACEMENT_3D('',#479,#415,#416);
#383=AXIS2_PLACEMENT_3D('',#481,#417,$);
#384=AXIS2_PLACEMENT_3D('',#482,#418,$);
#385=AXIS2_PLACEMENT_3D('',#486,#420,#421);
#386=AXIS2_PLACEMENT_3D('',#490,#423,#424);
#387=AXIS2_PLACEMENT_3D('',#491,#425,#426);
#388=AXIS2_PLACEMENT_3D('',#523,#428,#429);
#389=AXIS2_PLACEMENT_3D('',#528,#432,#433);
#390=AXIS2_PLACEMENT_3D('',#531,#435,#436);
#391=AXIS2_PLACEMENT_3D('',#532,#437,#438);
#392=AXIS2_PLACEMENT_3D('',#592,#439,$);
#393=AXIS2_PLACEMENT_3D('',#600,#444,#445);
#394=AXIS2_PLACEMENT_3D('',#601,#446,#447);
#395=AXIS2_PLACEMENT_3D('',#604,#449,$);
#396=AXIS2_PLACEMENT_3D('',#613,#454,$);
#397=AXIS2_PLACEMENT_3D('',#614,#455,#456);
#398=AXIS2_PLACEMENT_3D('',#616,#457,#458);
#399=AXIS2_PLACEMENT_3D('',#617,#459,#460);
#400=AXIS2_PLACEMENT_3D('',#619,#461,$);
#401=AXIS2_PLACEMENT_3D('',#623,#464,$);
#402=AXIS2_PLACEMENT_3D('',#627,#467,$);
#403=AXIS2_PLACEMENT_3D('',#629,#469,$);
#404=DIRECTION('',(0.,0.,-1.));
#405=DIRECTION('',(0.,2.458734,0.));
#406=DIRECTION('',(0.,0.,1.));
#407=DIRECTION('',(0.,2.458734,0.));
#408=DIRECTION('',(0.,0.,-1.));
#409=DIRECTION('',(0.,2.458734,0.));
#410=DIRECTION('',(0.,0.,-1.));
#411=DIRECTION('',(0.,0.,-1.));
#412=DIRECTION('',(0.,2.458734,0.));
#413=DIRECTION('',(0.,0.,1.));
#414=DIRECTION('',(0.,2.458734,0.));
#415=DIRECTION('',(0.,0.,-1.));
#416=DIRECTION('',(0.,2.458734,0.));
#417=DIRECTION('',(0.,0.,-1.));
#418=DIRECTION('',(0.,-1.,0.));
#419=DIRECTION('',(0.,0.,1.));
#420=DIRECTION('',(0.,1.,0.));
#421=DIRECTION('',(8.,0.,0.));
#422=DIRECTION('',(-1.,0.,0.));
#423=DIRECTION('',(0.,1.,0.));
#424=DIRECTION('',(7.25,0.,0.));
#425=DIRECTION('',(0.,-1.,0.));
#426=DIRECTION('',(8.,0.,0.));
#427=DIRECTION('',(0.,-1.,0.));
#428=DIRECTION('',(0.,-1.,0.));
#429=DIRECTION('',(8.,0.,0.));
#430=DIRECTION('',(0.,1.,0.));
#431=DIRECTION('',(0.,0.,-1.));
#432=DIRECTION('',(0.,1.,0.));
#433=DIRECTION('',(7.25,0.,0.));
#434=DIRECTION('',(-1.,0.,0.));
#435=DIRECTION('',(0.,0.,-1.));
#436=DIRECTION('',(0.,7.,0.));
#437=DIRECTION('',(0.,0.,1.));
#438=DIRECTION('',(0.,7.,0.));
#439=DIRECTION('',(0.,0.,1.));
#440=DIRECTION('',(1.,0.,0.));
#441=DIRECTION('',(-4.44089209850063E-16,1.,0.));
#442=DIRECTION('',(-1.,1.64346021921044E-32,0.));
#443=DIRECTION('',(0.,1.,0.));
#444=DIRECTION('',(0.,-1.,0.));
#445=DIRECTION('',(7.25,0.,0.));
#446=DIRECTION('',(1.64346021921044E-32,1.,0.));
#447=DIRECTION('',(7.25,0.,0.));
#448=DIRECTION('',(0.,-1.,0.));
#449=DIRECTION('',(0.,1.,0.));
#450=DIRECTION('',(0.,0.,1.));
#451=DIRECTION('',(1.,0.,0.));
#452=DIRECTION('',(0.,0.,1.));
#453=DIRECTION('',(0.,-1.,0.));
#454=DIRECTION('',(0.,0.,-1.));
#455=DIRECTION('',(0.,0.,1.));
#456=DIRECTION('',(0.,4.,0.));
#457=DIRECTION('',(0.,0.,-1.));
#458=DIRECTION('',(0.,4.,0.));
#459=DIRECTION('',(0.,0.,1.));
#460=DIRECTION('',(0.,4.,0.));
#461=DIRECTION('',(1.,0.,0.));
#462=DIRECTION('',(0.,0.,1.));
#463=DIRECTION('',(0.,-1.,0.));
#464=DIRECTION('',(-1.64346021921044E-32,-1.,0.));
#465=DIRECTION('',(0.,0.,1.));
#466=DIRECTION('',(-1.,1.64346021921044E-32,0.));
#467=DIRECTION('',(-1.,-4.44089209850063E-16,0.));
#468=DIRECTION('',(-4.44089209850063E-16,1.,0.));
#469=DIRECTION('',(0.,0.,1.));
#470=CARTESIAN_POINT('',(52.5,10.,32.));
#471=CARTESIAN_POINT('',(52.5,10.,22.));
#472=CARTESIAN_POINT('',(52.5,12.458734,22.));
#473=CARTESIAN_POINT('',(52.5,10.,32.));
#474=CARTESIAN_POINT('',(52.5,12.458734,32.));
#475=CARTESIAN_POINT('',(52.5,10.,22.));
#476=CARTESIAN_POINT('',(7.5,10.,32.));
#477=CARTESIAN_POINT('',(7.5,10.,22.));
#478=CARTESIAN_POINT('',(7.5,12.458734,22.));
#479=CARTESIAN_POINT('',(7.5,10.,32.));
#480=CARTESIAN_POINT('',(7.5,12.458734,32.));
#481=CARTESIAN_POINT('',(7.5,10.,22.));
#482=CARTESIAN_POINT('',(30.,9.,32.));
#483=CARTESIAN_POINT('',(23.0717967697245,9.,27.0580755095962));
#484=CARTESIAN_POINT('',(23.0717967697245,9.,28.));
#485=CARTESIAN_POINT('',(23.0717967696442,9.00000000027827,29.8639990639312));
#486=CARTESIAN_POINT('',(30.,9.,32.));
#487=CARTESIAN_POINT('',(22.,9.,32.));
#488=CARTESIAN_POINT('',(30.,9.,32.));
#489=CARTESIAN_POINT('',(22.75,9.,32.));
#490=CARTESIAN_POINT('',(30.,9.,32.));
#491=CARTESIAN_POINT('',(30.,20.,32.));
#492=CARTESIAN_POINT('',(36.8519482572542,8.56793677516961,27.8707379497165));
#493=CARTESIAN_POINT('',(36.9474266534633,9.02476929766321,28.0291713450757));
#494=CARTESIAN_POINT('',(37.,9.50159320180098,28.1270166537926));
#495=CARTESIAN_POINT('',(37.,10.,28.1270166537926));
#496=CARTESIAN_POINT('',(37.,10.498406798199,28.1270166537926));
#497=CARTESIAN_POINT('',(36.9474266534633,10.9752307023368,28.0291713450757));
#498=CARTESIAN_POINT('',(36.7564698610451,11.888895747324,27.7123045543573));
#499=CARTESIAN_POINT('',(36.6177414283471,12.32624561622,27.4949603778308));
#500=CARTESIAN_POINT('',(36.0841299657279,13.5787031154836,26.7709584711996));
#501=CARTESIAN_POINT('',(35.5655512136724,14.3339437229393,26.2000807952915));
#502=CARTESIAN_POINT('',(34.3694335337383,15.5300614028733,25.2580645244473));
#503=CARTESIAN_POINT('',(33.6189716878864,16.0640704001783,24.8071623453563));
#504=CARTESIAN_POINT('',(31.9049357557472,16.800083149674,24.1766315241267));
#505=CARTESIAN_POINT('',(30.9393655438256,17.,24.));
#506=CARTESIAN_POINT('',(29.0606344561744,17.,24.));
#507=CARTESIAN_POINT('',(28.0950642442528,16.800083149674,24.1766315241267));
#508=CARTESIAN_POINT('',(26.3810283121136,16.0640704001783,24.8071623453563));
#509=CARTESIAN_POINT('',(25.6305664662617,15.5300614028733,25.2580645244473));
#510=CARTESIAN_POINT('',(24.4344487863276,14.3339437229392,26.2000807952916));
#511=CARTESIAN_POINT('',(23.9158700342721,13.5787031154836,26.7709584711996));
#512=CARTESIAN_POINT('',(23.3822585716529,12.32624561622,27.4949603778308));
#513=CARTESIAN_POINT('',(23.2435301389549,11.888895747324,27.7123045543573));
#514=CARTESIAN_POINT('',(23.0525733465367,10.9752307023368,28.0291713450757));
#515=CARTESIAN_POINT('',(23.,10.498406798199,28.1270166537926));
#516=CARTESIAN_POINT('',(23.,9.50159320180098,28.1270166537926));
#517=CARTESIAN_POINT('',(23.0525733465368,9.02476929766321,28.0291713450757));
#518=CARTESIAN_POINT('',(23.1480517427458,8.56793677516961,27.8707379497165));
#519=CARTESIAN_POINT('',(36.9282032302755,9.,28.));
#520=CARTESIAN_POINT('',(38.,9.,32.));
#521=CARTESIAN_POINT('',(38.,14.5,32.));
#522=CARTESIAN_POINT('',(38.,20.,32.));
#523=CARTESIAN_POINT('',(30.,20.,32.));
#524=CARTESIAN_POINT('',(22.,20.,32.));
#525=CARTESIAN_POINT('',(22.,14.5,32.));
#526=CARTESIAN_POINT('',(36.9282032302755,9.,27.0580755095962));
#527=CARTESIAN_POINT('',(36.9282032303558,9.00000000027827,29.8639990639312));
#528=CARTESIAN_POINT('',(30.,9.,32.));
#529=CARTESIAN_POINT('',(37.25,9.,32.));
#530=CARTESIAN_POINT('',(30.,9.,32.));
#531=CARTESIAN_POINT('',(30.,10.,32.));
#532=CARTESIAN_POINT('',(30.,10.,5.));
#533=CARTESIAN_POINT('',(30.,17.,5.));
#534=CARTESIAN_POINT('',(37.,10.,30.1125413911823));
#535=CARTESIAN_POINT('',(37.,10.2796825135127,30.1125413911823));
#536=CARTESIAN_POINT('',(36.9840768551362,10.5271744748394,30.0523208178548));
#537=CARTESIAN_POINT('',(36.9329847952072,10.994467736903,29.8776183692538));
#538=CARTESIAN_POINT('',(36.8974430658561,11.2139609581952,29.7624225389612));
#539=CARTESIAN_POINT('',(36.7625939676184,11.8604358138738,29.3721617447501));
#540=CARTESIAN_POINT('',(36.6357694677535,12.2723212142298,29.0554607491803));
#541=CARTESIAN_POINT('',(36.1257224569375,13.5018630536226,28.0499347140339));
#542=CARTESIAN_POINT('',(35.6097621870121,14.2897327495996,27.319294314946));
#543=CARTESIAN_POINT('',(34.3848566873216,15.51463824929,26.1747767884827));
#544=CARTESIAN_POINT('',(33.6447128968246,16.0487770753874,25.6644492845217));
#545=CARTESIAN_POINT('',(32.3601894167921,16.6066192021779,25.1292528028276));
#546=CARTESIAN_POINT('',(31.9032807854956,16.7534013077514,24.987850060936));
#547=CARTESIAN_POINT('',(30.9625765773343,16.9501333302868,24.7981828089517));
#548=CARTESIAN_POINT('',(30.4787471218687,17.,24.75));
#549=CARTESIAN_POINT('',(29.5212528781313,17.,24.75));
#550=CARTESIAN_POINT('',(29.0374234226657,16.9501333302868,24.7981828089517));
#551=CARTESIAN_POINT('',(28.0967192145044,16.7534013077514,24.987850060936));
#552=CARTESIAN_POINT('',(27.6398105832079,16.6066192021779,25.1292528028276));
#553=CARTESIAN_POINT('',(26.3552871031754,16.0487770753874,25.6644492845217));
#554=CARTESIAN_POINT('',(25.6151433126784,15.51463824929,26.1747767884827));
#555=CARTESIAN_POINT('',(24.3902378129879,14.2897327495996,27.319294314946));
#556=CARTESIAN_POINT('',(23.8742775430625,13.5018630536226,28.0499347140339));
#557=CARTESIAN_POINT('',(23.3642305322465,12.2723212142298,29.0554607491803));
#558=CARTESIAN_POINT('',(23.2374060323816,11.8604358138738,29.3721617447501));
#559=CARTESIAN_POINT('',(23.1025569341439,11.2139609581952,29.7624225389612));
#560=CARTESIAN_POINT('',(23.0670152047928,10.994467736903,29.8776183692538));
#561=CARTESIAN_POINT('',(23.0159231448638,10.5271744748394,30.0523208178548));
#562=CARTESIAN_POINT('',(23.,10.2796825135127,30.1125413911823));
#563=CARTESIAN_POINT('',(23.,9.72031748648734,30.1125413911823));
#564=CARTESIAN_POINT('',(23.0159231448638,9.4728255251606,30.0523208178548));
#565=CARTESIAN_POINT('',(23.0670152047928,9.005532263097,29.8776183692538));
#566=CARTESIAN_POINT('',(23.1025569341439,8.78603904180477,29.7624225389612));
#567=CARTESIAN_POINT('',(23.2374060323816,8.13956418612618,29.3721617447501));
#568=CARTESIAN_POINT('',(23.3642305322465,7.72767878577021,29.0554607491803));
#569=CARTESIAN_POINT('',(23.8742775430625,6.49813694637743,28.0499347140339));
#570=CARTESIAN_POINT('',(24.3902378129879,5.7102672504004,27.319294314946));
#571=CARTESIAN_POINT('',(25.6151433126784,4.48536175070998,26.1747767884827));
#572=CARTESIAN_POINT('',(26.3552871031754,3.95122292461262,25.6644492845217));
#573=CARTESIAN_POINT('',(27.6398105832079,3.39338079782205,25.1292528028276));
#574=CARTESIAN_POINT('',(28.0967192145044,3.24659869224862,24.987850060936));
#575=CARTESIAN_POINT('',(29.0374234226657,3.04986666971315,24.7981828089517));
#576=CARTESIAN_POINT('',(29.5212528781313,3.,24.75));
#577=CARTESIAN_POINT('',(30.4787471218687,3.,24.75));
#578=CARTESIAN_POINT('',(30.9625765773343,3.04986666971315,24.7981828089517));
#579=CARTESIAN_POINT('',(31.9032807854956,3.24659869224862,24.987850060936));
#580=CARTESIAN_POINT('',(32.3601894167921,3.39338079782205,25.1292528028276));
#581=CARTESIAN_POINT('',(33.6447128968246,3.95122292461262,25.6644492845217));
#582=CARTESIAN_POINT('',(34.3848566873216,4.48536175070998,26.1747767884827));
#583=CARTESIAN_POINT('',(35.6097621870121,5.7102672504004,27.319294314946));
#584=CARTESIAN_POINT('',(36.1257224569375,6.49813694637745,28.0499347140339));
#585=CARTESIAN_POINT('',(36.6357694677535,7.72767878577022,29.0554607491803));
#586=CARTESIAN_POINT('',(36.7625939676184,8.13956418612619,29.3721617447501));
#587=CARTESIAN_POINT('',(36.8974430658561,8.78603904180477,29.7624225389612));
#588=CARTESIAN_POINT('',(36.9329847952072,9.005532263097,29.8776183692538));
#589=CARTESIAN_POINT('',(36.9840768551362,9.4728255251606,30.0523208178548));
#590=CARTESIAN_POINT('',(37.,9.72031748648734,30.1125413911823));
#591=CARTESIAN_POINT('',(37.,10.,30.1125413911823));
#592=CARTESIAN_POINT('',(30.,10.,32.));
#593=CARTESIAN_POINT('',(-8.88178419700125E-15,20.,32.));
#594=CARTESIAN_POINT('',(-8.88178419700125E-15,20.,32.));
#595=CARTESIAN_POINT('',(0.,0.,32.));
#596=CARTESIAN_POINT('',(0.,0.,32.));
#597=CARTESIAN_POINT('',(60.,-9.86076131526265E-31,32.));
#598=CARTESIAN_POINT('',(22.75,0.,32.));
#599=CARTESIAN_POINT('',(22.75,20.,32.));
#600=CARTESIAN_POINT('',(30.,20.,32.));
#601=CARTESIAN_POINT('',(30.,0.,32.));
#602=CARTESIAN_POINT('',(37.25,0.,32.));
#603=CARTESIAN_POINT('',(37.25,20.,32.));
#604=CARTESIAN_POINT('',(30.,20.,0.));
#605=CARTESIAN_POINT('',(60.,20.,32.));
#606=CARTESIAN_POINT('',(60.,20.,0.));
#607=CARTESIAN_POINT('',(60.,20.,0.));
#608=CARTESIAN_POINT('',(-8.88178419700125E-15,20.,0.));
#609=CARTESIAN_POINT('',(-8.88178419700125E-15,20.,0.));
#610=CARTESIAN_POINT('',(-8.88178419700125E-15,20.,0.));
#611=CARTESIAN_POINT('',(60.,0.,32.));
#612=CARTESIAN_POINT('',(60.,20.,32.));
#613=CARTESIAN_POINT('',(30.,10.,5.));
#614=CARTESIAN_POINT('',(30.,10.,5.));
#615=CARTESIAN_POINT('',(30.,6.,5.));
#616=CARTESIAN_POINT('',(30.,10.,32.));
#617=CARTESIAN_POINT('',(30.,10.,0.));
#618=CARTESIAN_POINT('',(30.,14.,0.));
#619=CARTESIAN_POINT('',(60.,10.,0.));
#620=CARTESIAN_POINT('',(60.,0.,0.));
#621=CARTESIAN_POINT('',(60.,0.,0.));
#622=CARTESIAN_POINT('',(60.,20.,0.));
#623=CARTESIAN_POINT('',(30.,-4.93038065763132E-31,0.));
#624=CARTESIAN_POINT('',(0.,0.,0.));
#625=CARTESIAN_POINT('',(0.,0.,0.));
#626=CARTESIAN_POINT('',(60.,-9.86076131526265E-31,0.));
#627=CARTESIAN_POINT('',(-4.44089209850063E-15,10.,0.));
#628=CARTESIAN_POINT('',(0.,0.,0.));
#629=CARTESIAN_POINT('',(30.,10.,0.));
#630=CYLINDRICAL_SURFACE('',#376,2.458734);
#631=CYLINDRICAL_SURFACE('',#380,2.458734);
#632=CYLINDRICAL_SURFACE('',#387,8.);
#633=CYLINDRICAL_SURFACE('',#390,7.);
#634=CYLINDRICAL_SURFACE('',#393,7.25);
#635=CYLINDRICAL_SURFACE('',#398,4.);
#636=CLOSED_SHELL('',(#358,#359,#360,#361,#362,#363,#364,#365,#366,#367,
#368,#369,#370,#371,#372,#373,#374,#375));
#637=MANIFOLD_SOLID_BREP('',#636);
#638=ADVANCED_BREP_SHAPE_REPRESENTATION('',(#637),#103);
ENDSEC;
END-ISO-10303-21;
