ISO-10303-21;
HEADER;
FILE_DESCRIPTION (( 'STEP AP203' ),
    '1' );
FILE_NAME ('épaisseur amortisseur.STEP',
    '2024-08-28T08:52:23',
    ( '' ),
    ( '' ),
    'SwSTEP 2.0',
    'SolidWorks 2023',
    '' );
FILE_SCHEMA (( 'CONFIG_CONTROL_DESIGN' ));
ENDSEC;

DATA;
#1 = AXIS2_PLACEMENT_3D ( 'NONE', #236, #42, #8 ) ;
#2 = ADVANCED_FACE ( 'NONE', ( #183 ), #164, .T. ) ;
#3 = PLANE ( 'NONE',  #101 ) ;
#4 = APPLICATION_CONTEXT ( 'configuration controlled 3d designs of mechanical parts and assemblies' ) ;
#5 = COORDINATED_UNIVERSAL_TIME_OFFSET ( 1, 0, .AHEAD. ) ;
#6 = APPROVAL_ROLE ( '' ) ;
#7 = CC_DESIGN_APPROVAL ( #171, ( #85 ) ) ;
#8 = DIRECTION ( 'NONE',  ( 1.000000000000000000, 0.000000000000000000, 0.000000000000000000 ) ) ;
#9 = APPLICATION_CONTEXT ( 'configuration controlled 3d designs of mechanical parts and assemblies' ) ;
#10 = LOCAL_TIME ( 10, 52, 23.00000000000000000, #26 ) ;
#11 = ORIENTED_EDGE ( 'NONE', *, *, #125, .F. ) ;
#12 = ORIENTED_EDGE ( 'NONE', *, *, #64, .T. ) ;
#13 = EDGE_LOOP ( 'NONE', ( #241, #122 ) ) ;
#14 = CC_DESIGN_PERSON_AND_ORGANIZATION_ASSIGNMENT ( #75, #118, ( #57 ) ) ;
#15 = VECTOR ( 'NONE', #70, 1000.000000000000000 ) ;
#16 =( GEOMETRIC_REPRESENTATION_CONTEXT ( 3 ) GLOBAL_UNCERTAINTY_ASSIGNED_CONTEXT ( ( #29 ) ) GLOBAL_UNIT_ASSIGNED_CONTEXT ( ( #58, #246, #69 ) ) REPRESENTATION_CONTEXT ( 'NONE', 'WORKASPACE' ) );
#17 = VERTEX_POINT ( 'NONE', #220 ) ;
#18 = CARTESIAN_POINT ( 'NONE',  ( 0.000000000000000000, 0.000000000000000000, 0.000000000000000000 ) ) ;
#19 = DIRECTION ( 'NONE',  ( 1.000000000000000000, 0.000000000000000000, -0.000000000000000000 ) ) ;
#20 = AXIS2_PLACEMENT_3D ( 'NONE', #247, #248, #38 ) ;
#21 = SECURITY_CLASSIFICATION ( '', '', #154 ) ;
#22 = FACE_OUTER_BOUND ( 'NONE', #37, .T. ) ;
#23 = DIRECTION ( 'NONE',  ( -0.000000000000000000, -0.000000000000000000, 1.000000000000000000 ) ) ;
#24 = EDGE_CURVE ( 'NONE', #203, #17, #162, .T. ) ;
#25 = VECTOR ( 'NONE', #163, 1000.000000000000000 ) ;
#26 = COORDINATED_UNIVERSAL_TIME_OFFSET ( 1, 0, .AHEAD. ) ;
#27 = PERSON_AND_ORGANIZATION_ROLE ( 'design_owner' ) ;
#28 = PERSON_AND_ORGANIZATION ( #121, #167 ) ;
#29 = UNCERTAINTY_MEASURE_WITH_UNIT (LENGTH_MEASURE( 1.000000000000000082E-05 ), #58, 'distance_accuracy_value', 'NONE');
#30 = COORDINATED_UNIVERSAL_TIME_OFFSET ( 1, 0, .AHEAD. ) ;
#31 = EDGE_CURVE ( 'NONE', #179, #203, #86, .T. ) ;
#32 = VERTEX_POINT ( 'NONE', #67 ) ;
#33 = VERTEX_POINT ( 'NONE', #143 ) ;
#34 = APPROVAL ( #100, 'UNSPECIFIED' ) ;
#35 = ORIENTED_EDGE ( 'NONE', *, *, #161, .F. ) ;
#36 = CYLINDRICAL_SURFACE ( 'NONE', #90, 4.000000000000000000 ) ;
#37 = EDGE_LOOP ( 'NONE', ( #245, #124, #68, #201 ) ) ;
#38 = DIRECTION ( 'NONE',  ( 1.000000000000000000, 0.000000000000000000, 0.000000000000000000 ) ) ;
#39 = FACE_BOUND ( 'NONE', #239, .T. ) ;
#40 = CARTESIAN_POINT ( 'NONE',  ( 9.000000000000001776, 1.102182119232617911E-15, 9.000000000000000000 ) ) ;
#41 = CC_DESIGN_PERSON_AND_ORGANIZATION_ASSIGNMENT ( #59, #116, ( #21 ) ) ;
#42 = DIRECTION ( 'NONE',  ( 0.000000000000000000, 0.000000000000000000, 1.000000000000000000 ) ) ;
#43 = APPROVAL_DATE_TIME ( #97, #34 ) ;
#44 = AXIS2_PLACEMENT_3D ( 'NONE', #207, #192, #19 ) ;
#45 = CALENDAR_DATE ( 2024, 28, 8 ) ;
#46 = ORIENTED_EDGE ( 'NONE', *, *, #114, .T. ) ;
#47 = CIRCLE ( 'NONE', #175, 9.000000000000001776 ) ;
#48 = AXIS2_PLACEMENT_3D ( 'NONE', #217, #202, #127 ) ;
#49 = ORIENTED_EDGE ( 'NONE', *, *, #156, .T. ) ;
#50 = ORIENTED_EDGE ( 'NONE', *, *, #24, .T. ) ;
#51 = ORIENTED_EDGE ( 'NONE', *, *, #31, .T. ) ;
#52 = AXIS2_PLACEMENT_3D ( 'NONE', #18, #158, #238 ) ;
#53 = ADVANCED_FACE ( 'NONE', ( #218 ), #36, .F. ) ;
#54 = LINE ( 'NONE', #40, #15 ) ;
#55 = CARTESIAN_POINT ( 'NONE',  ( 0.000000000000000000, 0.000000000000000000, 9.000000000000000000 ) ) ;
#56 = CIRCLE ( 'NONE', #84, 9.000000000000001776 ) ;
#57 = PRODUCT_DEFINITION ( 'UNKNOWN', '', #85, #177 ) ;
#58 =( LENGTH_UNIT ( ) NAMED_UNIT ( * ) SI_UNIT ( .MILLI., .METRE. ) );
#59 = PERSON_AND_ORGANIZATION ( #121, #167 ) ;
#60 = LOCAL_TIME ( 10, 52, 23.00000000000000000, #5 ) ;
#61 = APPROVAL_DATE_TIME ( #63, #171 ) ;
#62 = CALENDAR_DATE ( 2024, 28, 8 ) ;
#63 = DATE_AND_TIME ( #98, #138 ) ;
#64 = EDGE_CURVE ( 'NONE', #32, #179, #157, .T. ) ;
#65 = LINE ( 'NONE', #93, #221 ) ;
#66 = DIRECTION ( 'NONE',  ( -0.000000000000000000, -0.000000000000000000, -1.000000000000000000 ) ) ;
#67 = CARTESIAN_POINT ( 'NONE',  ( -4.000000000000000000, 4.898587196589412829E-16, 0.000000000000000000 ) ) ;
#68 = ORIENTED_EDGE ( 'NONE', *, *, #182, .T. ) ;
#69 =( NAMED_UNIT ( * ) SI_UNIT ( $, .STERADIAN. ) SOLID_ANGLE_UNIT ( ) );
#70 = DIRECTION ( 'NONE',  ( -0.000000000000000000, -0.000000000000000000, -1.000000000000000000 ) ) ;
#71 = EDGE_CURVE ( 'NONE', #32, #17, #65, .T. ) ;
#72 = CARTESIAN_POINT ( 'NONE',  ( 0.000000000000000000, 0.000000000000000000, 0.000000000000000000 ) ) ;
#73 = APPROVAL_PERSON_ORGANIZATION ( #231, #171, #6 ) ;
#74 = FACE_OUTER_BOUND ( 'NONE', #87, .T. ) ;
#75 = PERSON_AND_ORGANIZATION ( #121, #167 ) ;
#76 = DATE_AND_TIME ( #139, #60 ) ;
#77 = CC_DESIGN_APPROVAL ( #219, ( #21 ) ) ;
#78 = PERSON_AND_ORGANIZATION ( #121, #167 ) ;
#79 = PERSON_AND_ORGANIZATION ( #121, #167 ) ;
#80 = CC_DESIGN_DATE_AND_TIME_ASSIGNMENT ( #76, #152, ( #57 ) ) ;
#81 = APPLICATION_PROTOCOL_DEFINITION ( 'international standard', 'config_control_design', 1994, #9 ) ;
#82 = EDGE_LOOP ( 'NONE', ( #199, #160, #159, #83 ) ) ;
#83 = ORIENTED_EDGE ( 'NONE', *, *, #31, .F. ) ;
#84 = AXIS2_PLACEMENT_3D ( 'NONE', #222, #224, #130 ) ;
#85 = PRODUCT_DEFINITION_FORMATION_WITH_SPECIFIED_SOURCE ( 'ANY', '', #185, .NOT_KNOWN. ) ;
#86 = LINE ( 'NONE', #141, #25 ) ;
#87 = EDGE_LOOP ( 'NONE', ( #178, #49 ) ) ;
#88 = DIRECTION ( 'NONE',  ( 1.000000000000000000, 0.000000000000000000, 0.000000000000000000 ) ) ;
#89 = LINE ( 'NONE', #145, #225 ) ;
#90 = AXIS2_PLACEMENT_3D ( 'NONE', #102, #181, #108 ) ;
#91 = ADVANCED_BREP_SHAPE_REPRESENTATION ( '\X2\00e9\X0\paisseur amortisseur', ( #240, #1 ), #16 ) ;
#92 = DIRECTION ( 'NONE',  ( -1.000000000000000000, 0.000000000000000000, 0.000000000000000000 ) ) ;
#93 = CARTESIAN_POINT ( 'NONE',  ( -4.000000000000000000, 4.898587196589412829E-16, 0.000000000000000000 ) ) ;
#94 = DIRECTION ( 'NONE',  ( -0.000000000000000000, -0.000000000000000000, -1.000000000000000000 ) ) ;
#95 = EDGE_CURVE ( 'NONE', #17, #203, #131, .T. ) ;
#96 = ORIENTED_EDGE ( 'NONE', *, *, #230, .T. ) ;
#97 = DATE_AND_TIME ( #45, #197 ) ;
#98 = CALENDAR_DATE ( 2024, 28, 8 ) ;
#99 = ADVANCED_FACE ( 'NONE', ( #170 ), #146, .F. ) ;
#100 = APPROVAL_STATUS ( 'not_yet_approved' ) ;
#101 = AXIS2_PLACEMENT_3D ( 'NONE', #113, #228, #168 ) ;
#102 = CARTESIAN_POINT ( 'NONE',  ( 0.000000000000000000, 0.000000000000000000, 0.000000000000000000 ) ) ;
#103 = EDGE_LOOP ( 'NONE', ( #35, #11, #46, #216 ) ) ;
#104 = EDGE_LOOP ( 'NONE', ( #123, #126 ) ) ;
#105 = AXIS2_PLACEMENT_3D ( 'NONE', #148, #129, #110 ) ;
#106 = ORIENTED_EDGE ( 'NONE', *, *, #230, .F. ) ;
#107 = CC_DESIGN_PERSON_AND_ORGANIZATION_ASSIGNMENT ( #155, #214, ( #85 ) ) ;
#108 = DIRECTION ( 'NONE',  ( 1.000000000000000000, 0.000000000000000000, 0.000000000000000000 ) ) ;
#109 = DIRECTION ( 'NONE',  ( 1.000000000000000000, 0.000000000000000000, 0.000000000000000000 ) ) ;
#110 = DIRECTION ( 'NONE',  ( 1.000000000000000000, 0.000000000000000000, 0.000000000000000000 ) ) ;
#111 = AXIS2_PLACEMENT_3D ( 'NONE', #55, #206, #210 ) ;
#112 = CARTESIAN_POINT ( 'NONE',  ( -9.000000000000001776, 0.000000000000000000, 0.000000000000000000 ) ) ;
#113 = CARTESIAN_POINT ( 'NONE',  ( 0.000000000000000000, 0.000000000000000000, 0.000000000000000000 ) ) ;
#114 = EDGE_CURVE ( 'NONE', #205, #243, #89, .T. ) ;
#115 = FACE_OUTER_BOUND ( 'NONE', #13, .T. ) ;
#116 = PERSON_AND_ORGANIZATION_ROLE ( 'classification_officer' ) ;
#117 = PRODUCT_RELATED_PRODUCT_CATEGORY ( 'detail', '', ( #185 ) ) ;
#118 = PERSON_AND_ORGANIZATION_ROLE ( 'creator' ) ;
#119 = COORDINATED_UNIVERSAL_TIME_OFFSET ( 1, 0, .AHEAD. ) ;
#120 = DATE_TIME_ROLE ( 'classification_date' ) ;
#121 = PERSON ( 'UNSPECIFIED', 'UNSPECIFIED', 'UNSPECIFIED', ('UNSPECIFIED'), ('UNSPECIFIED'), ('UNSPECIFIED') ) ;
#122 = ORIENTED_EDGE ( 'NONE', *, *, #182, .F. ) ;
#123 = ORIENTED_EDGE ( 'NONE', *, *, #24, .F. ) ;
#124 = ORIENTED_EDGE ( 'NONE', *, *, #161, .T. ) ;
#125 = EDGE_CURVE ( 'NONE', #205, #33, #186, .T. ) ;
#126 = ORIENTED_EDGE ( 'NONE', *, *, #95, .F. ) ;
#127 = DIRECTION ( 'NONE',  ( 1.000000000000000000, 0.000000000000000000, 0.000000000000000000 ) ) ;
#128 = DIRECTION ( 'NONE',  ( -0.000000000000000000, -0.000000000000000000, 1.000000000000000000 ) ) ;
#129 = DIRECTION ( 'NONE',  ( 0.000000000000000000, 0.000000000000000000, 1.000000000000000000 ) ) ;
#130 = DIRECTION ( 'NONE',  ( 1.000000000000000000, 0.000000000000000000, 0.000000000000000000 ) ) ;
#131 = CIRCLE ( 'NONE', #20, 4.000000000000000000 ) ;
#132 = APPROVAL_PERSON_ORGANIZATION ( #28, #219, #235 ) ;
#133 = DIRECTION ( 'NONE',  ( -0.000000000000000000, -0.000000000000000000, -1.000000000000000000 ) ) ;
#134 = DATE_AND_TIME ( #195, #187 ) ;
#135 = CIRCLE ( 'NONE', #105, 4.000000000000000000 ) ;
#136 = DATE_AND_TIME ( #62, #10 ) ;
#137 = SHAPE_DEFINITION_REPRESENTATION ( #226, #91 ) ;
#138 = LOCAL_TIME ( 10, 52, 23.00000000000000000, #119 ) ;
#139 = CALENDAR_DATE ( 2024, 28, 8 ) ;
#140 = EDGE_CURVE ( 'NONE', #243, #142, #56, .T. ) ;
#141 = CARTESIAN_POINT ( 'NONE',  ( 4.000000000000000000, 0.000000000000000000, 0.000000000000000000 ) ) ;
#142 = VERTEX_POINT ( 'NONE', #223 ) ;
#143 = CARTESIAN_POINT ( 'NONE',  ( 9.000000000000001776, 1.102182119232617911E-15, 9.000000000000000000 ) ) ;
#144 = DIRECTION ( 'NONE',  ( -1.000000000000000000, 0.000000000000000000, 0.000000000000000000 ) ) ;
#145 = CARTESIAN_POINT ( 'NONE',  ( -9.000000000000001776, 0.000000000000000000, 9.000000000000000000 ) ) ;
#146 = CYLINDRICAL_SURFACE ( 'NONE', #232, 4.000000000000000000 ) ;
#147 = DIRECTION ( 'NONE',  ( 1.000000000000000000, 0.000000000000000000, 0.000000000000000000 ) ) ;
#148 = CARTESIAN_POINT ( 'NONE',  ( 0.000000000000000000, 0.000000000000000000, 0.000000000000000000 ) ) ;
#149 = CIRCLE ( 'NONE', #227, 9.000000000000001776 ) ;
#150 = FACE_BOUND ( 'NONE', #104, .T. ) ;
#151 = APPROVAL_DATE_TIME ( #136, #219 ) ;
#152 = DATE_TIME_ROLE ( 'creation_date' ) ;
#153 = PERSON_AND_ORGANIZATION_ROLE ( 'creator' ) ;
#154 = SECURITY_CLASSIFICATION_LEVEL ( 'unclassified' ) ;
#155 = PERSON_AND_ORGANIZATION ( #121, #167 ) ;
#156 = EDGE_CURVE ( 'NONE', #33, #205, #47, .T. ) ;
#157 = CIRCLE ( 'NONE', #52, 4.000000000000000000 ) ;
#158 = DIRECTION ( 'NONE',  ( 0.000000000000000000, 0.000000000000000000, 1.000000000000000000 ) ) ;
#159 = ORIENTED_EDGE ( 'NONE', *, *, #95, .T. ) ;
#160 = ORIENTED_EDGE ( 'NONE', *, *, #71, .T. ) ;
#161 = EDGE_CURVE ( 'NONE', #33, #142, #54, .T. ) ;
#162 = CIRCLE ( 'NONE', #48, 4.000000000000000000 ) ;
#163 = DIRECTION ( 'NONE',  ( -0.000000000000000000, -0.000000000000000000, 1.000000000000000000 ) ) ;
#164 = CYLINDRICAL_SURFACE ( 'NONE', #208, 9.000000000000001776 ) ;
#165 = CARTESIAN_POINT ( 'NONE',  ( 0.000000000000000000, 0.000000000000000000, 9.000000000000000000 ) ) ;
#166 = CLOSED_SHELL ( 'NONE', ( #99, #234, #2, #204, #198, #53 ) ) ;
#167 = ORGANIZATION ( 'UNSPECIFIED', 'UNSPECIFIED', '' ) ;
#168 = DIRECTION ( 'NONE',  ( 1.000000000000000000, 0.000000000000000000, -0.000000000000000000 ) ) ;
#169 = CYLINDRICAL_SURFACE ( 'NONE', #211, 9.000000000000001776 ) ;
#170 = FACE_OUTER_BOUND ( 'NONE', #82, .T. ) ;
#171 = APPROVAL ( #196, 'UNSPECIFIED' ) ;
#172 = DIRECTION ( 'NONE',  ( 0.000000000000000000, 0.000000000000000000, 1.000000000000000000 ) ) ;
#173 = PERSON_AND_ORGANIZATION ( #121, #167 ) ;
#174 = APPROVAL_STATUS ( 'not_yet_approved' ) ;
#175 = AXIS2_PLACEMENT_3D ( 'NONE', #188, #190, #88 ) ;
#176 = MECHANICAL_CONTEXT ( 'NONE', #9, 'mechanical' ) ;
#177 = DESIGN_CONTEXT ( 'detailed design', #4, 'design' ) ;
#178 = ORIENTED_EDGE ( 'NONE', *, *, #125, .T. ) ;
#179 = VERTEX_POINT ( 'NONE', #209 ) ;
#180 = CARTESIAN_POINT ( 'NONE',  ( 0.000000000000000000, 0.000000000000000000, 9.000000000000000000 ) ) ;
#181 = DIRECTION ( 'NONE',  ( -0.000000000000000000, -0.000000000000000000, 1.000000000000000000 ) ) ;
#182 = EDGE_CURVE ( 'NONE', #142, #243, #149, .T. ) ;
#183 = FACE_OUTER_BOUND ( 'NONE', #103, .T. ) ;
#184 = CARTESIAN_POINT ( 'NONE',  ( 4.000000000000000000, 0.000000000000000000, 9.000000000000000000 ) ) ;
#185 = PRODUCT ( '\X2\00e9\X0\paisseur amortisseur', '\X2\00e9\X0\paisseur amortisseur', '', ( #176 ) ) ;
#186 = CIRCLE ( 'NONE', #111, 9.000000000000001776 ) ;
#187 = LOCAL_TIME ( 10, 52, 23.00000000000000000, #30 ) ;
#188 = CARTESIAN_POINT ( 'NONE',  ( 0.000000000000000000, 0.000000000000000000, 9.000000000000000000 ) ) ;
#189 = CC_DESIGN_PERSON_AND_ORGANIZATION_ASSIGNMENT ( #79, #27, ( #185 ) ) ;
#190 = DIRECTION ( 'NONE',  ( 0.000000000000000000, 0.000000000000000000, 1.000000000000000000 ) ) ;
#191 = PLANE ( 'NONE',  #44 ) ;
#192 = DIRECTION ( 'NONE',  ( 0.000000000000000000, 0.000000000000000000, 1.000000000000000000 ) ) ;
#193 = COORDINATED_UNIVERSAL_TIME_OFFSET ( 1, 0, .AHEAD. ) ;
#194 = EDGE_LOOP ( 'NONE', ( #215, #106, #51, #50 ) ) ;
#195 = CALENDAR_DATE ( 2024, 28, 8 ) ;
#196 = APPROVAL_STATUS ( 'not_yet_approved' ) ;
#197 = LOCAL_TIME ( 10, 52, 23.00000000000000000, #193 ) ;
#198 = ADVANCED_FACE ( 'NONE', ( #39, #115 ), #3, .F. ) ;
#199 = ORIENTED_EDGE ( 'NONE', *, *, #64, .F. ) ;
#200 = CC_DESIGN_SECURITY_CLASSIFICATION ( #21, ( #85 ) ) ;
#201 = ORIENTED_EDGE ( 'NONE', *, *, #114, .F. ) ;
#202 = DIRECTION ( 'NONE',  ( 0.000000000000000000, 0.000000000000000000, 1.000000000000000000 ) ) ;
#203 = VERTEX_POINT ( 'NONE', #184 ) ;
#204 = ADVANCED_FACE ( 'NONE', ( #150, #74 ), #191, .T. ) ;
#205 = VERTEX_POINT ( 'NONE', #229 ) ;
#206 = DIRECTION ( 'NONE',  ( 0.000000000000000000, 0.000000000000000000, 1.000000000000000000 ) ) ;
#207 = CARTESIAN_POINT ( 'NONE',  ( 0.000000000000000000, 0.000000000000000000, 9.000000000000000000 ) ) ;
#208 = AXIS2_PLACEMENT_3D ( 'NONE', #180, #66, #144 ) ;
#209 = CARTESIAN_POINT ( 'NONE',  ( 4.000000000000000000, 0.000000000000000000, 0.000000000000000000 ) ) ;
#210 = DIRECTION ( 'NONE',  ( 1.000000000000000000, 0.000000000000000000, 0.000000000000000000 ) ) ;
#211 = AXIS2_PLACEMENT_3D ( 'NONE', #165, #133, #92 ) ;
#212 = APPROVAL_ROLE ( '' ) ;
#213 = CC_DESIGN_PERSON_AND_ORGANIZATION_ASSIGNMENT ( #78, #153, ( #85 ) ) ;
#214 = PERSON_AND_ORGANIZATION_ROLE ( 'design_supplier' ) ;
#215 = ORIENTED_EDGE ( 'NONE', *, *, #71, .F. ) ;
#216 = ORIENTED_EDGE ( 'NONE', *, *, #140, .T. ) ;
#217 = CARTESIAN_POINT ( 'NONE',  ( 0.000000000000000000, 0.000000000000000000, 9.000000000000000000 ) ) ;
#218 = FACE_OUTER_BOUND ( 'NONE', #194, .T. ) ;
#219 = APPROVAL ( #174, 'UNSPECIFIED' ) ;
#220 = CARTESIAN_POINT ( 'NONE',  ( -4.000000000000000000, 4.898587196589412829E-16, 9.000000000000000000 ) ) ;
#221 = VECTOR ( 'NONE', #23, 1000.000000000000000 ) ;
#222 = CARTESIAN_POINT ( 'NONE',  ( 0.000000000000000000, 0.000000000000000000, 0.000000000000000000 ) ) ;
#223 = CARTESIAN_POINT ( 'NONE',  ( 9.000000000000001776, 1.102182119232617911E-15, 0.000000000000000000 ) ) ;
#224 = DIRECTION ( 'NONE',  ( 0.000000000000000000, 0.000000000000000000, 1.000000000000000000 ) ) ;
#225 = VECTOR ( 'NONE', #94, 1000.000000000000000 ) ;
#226 = PRODUCT_DEFINITION_SHAPE ( 'NONE', 'NONE',  #57 ) ;
#227 = AXIS2_PLACEMENT_3D ( 'NONE', #72, #172, #109 ) ;
#228 = DIRECTION ( 'NONE',  ( 0.000000000000000000, 0.000000000000000000, 1.000000000000000000 ) ) ;
#229 = CARTESIAN_POINT ( 'NONE',  ( -9.000000000000001776, 0.000000000000000000, 9.000000000000000000 ) ) ;
#230 = EDGE_CURVE ( 'NONE', #179, #32, #135, .T. ) ;
#231 = PERSON_AND_ORGANIZATION ( #121, #167 ) ;
#232 = AXIS2_PLACEMENT_3D ( 'NONE', #249, #128, #147 ) ;
#233 = APPLICATION_PROTOCOL_DEFINITION ( 'international standard', 'config_control_design', 1994, #4 ) ;
#234 = ADVANCED_FACE ( 'NONE', ( #22 ), #169, .T. ) ;
#235 = APPROVAL_ROLE ( '' ) ;
#236 = CARTESIAN_POINT ( 'NONE',  ( 0.000000000000000000, 0.000000000000000000, 0.000000000000000000 ) ) ;
#237 = CC_DESIGN_APPROVAL ( #34, ( #57 ) ) ;
#238 = DIRECTION ( 'NONE',  ( 1.000000000000000000, 0.000000000000000000, 0.000000000000000000 ) ) ;
#239 = EDGE_LOOP ( 'NONE', ( #96, #12 ) ) ;
#240 = MANIFOLD_SOLID_BREP ( 'Enlèv. mat.-Extru.1', #166 ) ;
#241 = ORIENTED_EDGE ( 'NONE', *, *, #140, .F. ) ;
#242 = APPROVAL_PERSON_ORGANIZATION ( #173, #34, #212 ) ;
#243 = VERTEX_POINT ( 'NONE', #112 ) ;
#244 = CC_DESIGN_DATE_AND_TIME_ASSIGNMENT ( #134, #120, ( #21 ) ) ;
#245 = ORIENTED_EDGE ( 'NONE', *, *, #156, .F. ) ;
#246 =( NAMED_UNIT ( * ) PLANE_ANGLE_UNIT ( ) SI_UNIT ( $, .RADIAN. ) );
#247 = CARTESIAN_POINT ( 'NONE',  ( 0.000000000000000000, 0.000000000000000000, 9.000000000000000000 ) ) ;
#248 = DIRECTION ( 'NONE',  ( 0.000000000000000000, 0.000000000000000000, 1.000000000000000000 ) ) ;
#249 = CARTESIAN_POINT ( 'NONE',  ( 0.000000000000000000, 0.000000000000000000, 0.000000000000000000 ) ) ;
ENDSEC;
END-ISO-10303-21;
