ISO-10303-21;
HEADER;
/* Generated by software containing ST-Developer
 * from STEP Tools, Inc. (www.steptools.com) 
 */

FILE_DESCRIPTION(
/* description */ (''),
/* implementation_level */ '2;1');

FILE_NAME(
/* name */ 'Brake Guide V1 v1.step',
/* time_stamp */ '2024-06-04T18:33:01+02:00',
/* author */ (''),
/* organization */ (''),
/* preprocessor_version */ 'ST-DEVELOPER v20',
/* originating_system */ 'Autodesk Translation Framework v13.14.0.145',

/* authorisation */ '');

FILE_SCHEMA (('AUTOMOTIVE_DESIGN { 1 0 10303 214 3 1 1 }'));
ENDSEC;

DATA;
#10=MECHANICAL_DESIGN_GEOMETRIC_PRESENTATION_REPRESENTATION('',(#13),#474);
#11=SHAPE_REPRESENTATION_RELATIONSHIP('SRR','None',#481,#12);
#12=ADVANCED_BREP_SHAPE_REPRESENTATION('',(#14),#473);
#13=STYLED_ITEM('',(#490),#14);
#14=MANIFOLD_SOLID_BREP('Corps1',#288);
#15=FACE_BOUND('',#56,.T.);
#16=FACE_BOUND('',#57,.T.);
#17=FACE_BOUND('',#60,.T.);
#18=FACE_BOUND('',#61,.T.);
#19=PLANE('',#308);
#20=PLANE('',#309);
#21=PLANE('',#310);
#22=PLANE('',#311);
#23=PLANE('',#312);
#24=PLANE('',#313);
#25=PLANE('',#314);
#26=PLANE('',#315);
#27=PLANE('',#316);
#28=PLANE('',#317);
#29=PLANE('',#318);
#30=PLANE('',#319);
#31=PLANE('',#320);
#32=FACE_OUTER_BOUND('',#47,.T.);
#33=FACE_OUTER_BOUND('',#48,.T.);
#34=FACE_OUTER_BOUND('',#49,.T.);
#35=FACE_OUTER_BOUND('',#50,.T.);
#36=FACE_OUTER_BOUND('',#51,.T.);
#37=FACE_OUTER_BOUND('',#52,.T.);
#38=FACE_OUTER_BOUND('',#53,.T.);
#39=FACE_OUTER_BOUND('',#54,.T.);
#40=FACE_OUTER_BOUND('',#55,.T.);
#41=FACE_OUTER_BOUND('',#58,.T.);
#42=FACE_OUTER_BOUND('',#59,.T.);
#43=FACE_OUTER_BOUND('',#62,.T.);
#44=FACE_OUTER_BOUND('',#63,.T.);
#45=FACE_OUTER_BOUND('',#64,.T.);
#46=FACE_OUTER_BOUND('',#65,.T.);
#47=EDGE_LOOP('',(#197,#198,#199,#200));
#48=EDGE_LOOP('',(#201,#202,#203,#204));
#49=EDGE_LOOP('',(#205,#206,#207,#208,#209,#210,#211,#212));
#50=EDGE_LOOP('',(#213,#214,#215,#216));
#51=EDGE_LOOP('',(#217,#218,#219,#220,#221,#222,#223,#224));
#52=EDGE_LOOP('',(#225,#226,#227,#228));
#53=EDGE_LOOP('',(#229,#230,#231,#232));
#54=EDGE_LOOP('',(#233,#234,#235,#236));
#55=EDGE_LOOP('',(#237,#238,#239,#240,#241,#242));
#56=EDGE_LOOP('',(#243));
#57=EDGE_LOOP('',(#244));
#58=EDGE_LOOP('',(#245,#246,#247,#248));
#59=EDGE_LOOP('',(#249,#250,#251,#252));
#60=EDGE_LOOP('',(#253));
#61=EDGE_LOOP('',(#254));
#62=EDGE_LOOP('',(#255,#256,#257,#258));
#63=EDGE_LOOP('',(#259,#260,#261,#262));
#64=EDGE_LOOP('',(#263,#264,#265,#266));
#65=EDGE_LOOP('',(#267,#268,#269,#270));
#66=LINE('',#399,#99);
#67=LINE('',#405,#100);
#68=LINE('',#410,#101);
#69=LINE('',#412,#102);
#70=LINE('',#414,#103);
#71=LINE('',#416,#104);
#72=LINE('',#418,#105);
#73=LINE('',#420,#106);
#74=LINE('',#422,#107);
#75=LINE('',#423,#108);
#76=LINE('',#426,#109);
#77=LINE('',#428,#110);
#78=LINE('',#429,#111);
#79=LINE('',#432,#112);
#80=LINE('',#434,#113);
#81=LINE('',#436,#114);
#82=LINE('',#438,#115);
#83=LINE('',#440,#116);
#84=LINE('',#442,#117);
#85=LINE('',#443,#118);
#86=LINE('',#445,#119);
#87=LINE('',#448,#120);
#88=LINE('',#450,#121);
#89=LINE('',#451,#122);
#90=LINE('',#453,#123);
#91=LINE('',#456,#124);
#92=LINE('',#457,#125);
#93=LINE('',#460,#126);
#94=LINE('',#461,#127);
#95=LINE('',#463,#128);
#96=LINE('',#464,#129);
#97=LINE('',#466,#130);
#98=LINE('',#468,#131);
#99=VECTOR('',#327,1.5);
#100=VECTOR('',#334,1.5);
#101=VECTOR('',#339,10.);
#102=VECTOR('',#340,10.);
#103=VECTOR('',#341,10.);
#104=VECTOR('',#342,10.);
#105=VECTOR('',#343,10.);
#106=VECTOR('',#344,10.);
#107=VECTOR('',#345,10.);
#108=VECTOR('',#346,10.);
#109=VECTOR('',#349,10.);
#110=VECTOR('',#350,10.);
#111=VECTOR('',#351,10.);
#112=VECTOR('',#354,10.);
#113=VECTOR('',#355,10.);
#114=VECTOR('',#356,10.);
#115=VECTOR('',#357,10.);
#116=VECTOR('',#358,10.);
#117=VECTOR('',#359,10.);
#118=VECTOR('',#360,10.);
#119=VECTOR('',#363,10.);
#120=VECTOR('',#366,10.);
#121=VECTOR('',#367,10.);
#122=VECTOR('',#368,10.);
#123=VECTOR('',#371,10.);
#124=VECTOR('',#374,10.);
#125=VECTOR('',#375,10.);
#126=VECTOR('',#378,10.);
#127=VECTOR('',#379,10.);
#128=VECTOR('',#382,10.);
#129=VECTOR('',#383,10.);
#130=VECTOR('',#386,10.);
#131=VECTOR('',#389,10.);
#132=CIRCLE('',#303,1.5);
#133=CIRCLE('',#304,1.49999992560091);
#134=CIRCLE('',#306,1.5);
#135=CIRCLE('',#307,1.49999992560091);
#136=VERTEX_POINT('',#396);
#137=VERTEX_POINT('',#398);
#138=VERTEX_POINT('',#402);
#139=VERTEX_POINT('',#404);
#140=VERTEX_POINT('',#408);
#141=VERTEX_POINT('',#409);
#142=VERTEX_POINT('',#411);
#143=VERTEX_POINT('',#413);
#144=VERTEX_POINT('',#415);
#145=VERTEX_POINT('',#417);
#146=VERTEX_POINT('',#419);
#147=VERTEX_POINT('',#421);
#148=VERTEX_POINT('',#425);
#149=VERTEX_POINT('',#427);
#150=VERTEX_POINT('',#431);
#151=VERTEX_POINT('',#433);
#152=VERTEX_POINT('',#435);
#153=VERTEX_POINT('',#437);
#154=VERTEX_POINT('',#439);
#155=VERTEX_POINT('',#441);
#156=VERTEX_POINT('',#447);
#157=VERTEX_POINT('',#449);
#158=VERTEX_POINT('',#455);
#159=VERTEX_POINT('',#459);
#160=EDGE_CURVE('',#136,#136,#132,.T.);
#161=EDGE_CURVE('',#136,#137,#66,.T.);
#162=EDGE_CURVE('',#137,#137,#133,.T.);
#163=EDGE_CURVE('',#138,#138,#134,.T.);
#164=EDGE_CURVE('',#138,#139,#67,.T.);
#165=EDGE_CURVE('',#139,#139,#135,.T.);
#166=EDGE_CURVE('',#140,#141,#68,.T.);
#167=EDGE_CURVE('',#141,#142,#69,.T.);
#168=EDGE_CURVE('',#142,#143,#70,.T.);
#169=EDGE_CURVE('',#143,#144,#71,.T.);
#170=EDGE_CURVE('',#144,#145,#72,.T.);
#171=EDGE_CURVE('',#145,#146,#73,.T.);
#172=EDGE_CURVE('',#146,#147,#74,.T.);
#173=EDGE_CURVE('',#140,#147,#75,.T.);
#174=EDGE_CURVE('',#148,#140,#76,.T.);
#175=EDGE_CURVE('',#147,#149,#77,.T.);
#176=EDGE_CURVE('',#148,#149,#78,.T.);
#177=EDGE_CURVE('',#150,#148,#79,.T.);
#178=EDGE_CURVE('',#149,#151,#80,.T.);
#179=EDGE_CURVE('',#151,#152,#81,.T.);
#180=EDGE_CURVE('',#152,#153,#82,.T.);
#181=EDGE_CURVE('',#153,#154,#83,.T.);
#182=EDGE_CURVE('',#154,#155,#84,.T.);
#183=EDGE_CURVE('',#155,#150,#85,.T.);
#184=EDGE_CURVE('',#141,#150,#86,.T.);
#185=EDGE_CURVE('',#153,#156,#87,.T.);
#186=EDGE_CURVE('',#156,#157,#88,.T.);
#187=EDGE_CURVE('',#157,#154,#89,.T.);
#188=EDGE_CURVE('',#142,#155,#90,.T.);
#189=EDGE_CURVE('',#158,#157,#91,.T.);
#190=EDGE_CURVE('',#158,#143,#92,.T.);
#191=EDGE_CURVE('',#158,#159,#93,.T.);
#192=EDGE_CURVE('',#159,#156,#94,.T.);
#193=EDGE_CURVE('',#159,#144,#95,.T.);
#194=EDGE_CURVE('',#144,#153,#96,.T.);
#195=EDGE_CURVE('',#145,#152,#97,.T.);
#196=EDGE_CURVE('',#146,#151,#98,.T.);
#197=ORIENTED_EDGE('',*,*,#160,.F.);
#198=ORIENTED_EDGE('',*,*,#161,.T.);
#199=ORIENTED_EDGE('',*,*,#162,.F.);
#200=ORIENTED_EDGE('',*,*,#161,.F.);
#201=ORIENTED_EDGE('',*,*,#163,.F.);
#202=ORIENTED_EDGE('',*,*,#164,.T.);
#203=ORIENTED_EDGE('',*,*,#165,.F.);
#204=ORIENTED_EDGE('',*,*,#164,.F.);
#205=ORIENTED_EDGE('',*,*,#166,.T.);
#206=ORIENTED_EDGE('',*,*,#167,.T.);
#207=ORIENTED_EDGE('',*,*,#168,.T.);
#208=ORIENTED_EDGE('',*,*,#169,.T.);
#209=ORIENTED_EDGE('',*,*,#170,.T.);
#210=ORIENTED_EDGE('',*,*,#171,.T.);
#211=ORIENTED_EDGE('',*,*,#172,.T.);
#212=ORIENTED_EDGE('',*,*,#173,.F.);
#213=ORIENTED_EDGE('',*,*,#174,.T.);
#214=ORIENTED_EDGE('',*,*,#173,.T.);
#215=ORIENTED_EDGE('',*,*,#175,.T.);
#216=ORIENTED_EDGE('',*,*,#176,.F.);
#217=ORIENTED_EDGE('',*,*,#177,.T.);
#218=ORIENTED_EDGE('',*,*,#176,.T.);
#219=ORIENTED_EDGE('',*,*,#178,.T.);
#220=ORIENTED_EDGE('',*,*,#179,.T.);
#221=ORIENTED_EDGE('',*,*,#180,.T.);
#222=ORIENTED_EDGE('',*,*,#181,.T.);
#223=ORIENTED_EDGE('',*,*,#182,.T.);
#224=ORIENTED_EDGE('',*,*,#183,.T.);
#225=ORIENTED_EDGE('',*,*,#166,.F.);
#226=ORIENTED_EDGE('',*,*,#174,.F.);
#227=ORIENTED_EDGE('',*,*,#177,.F.);
#228=ORIENTED_EDGE('',*,*,#184,.F.);
#229=ORIENTED_EDGE('',*,*,#181,.F.);
#230=ORIENTED_EDGE('',*,*,#185,.T.);
#231=ORIENTED_EDGE('',*,*,#186,.T.);
#232=ORIENTED_EDGE('',*,*,#187,.T.);
#233=ORIENTED_EDGE('',*,*,#167,.F.);
#234=ORIENTED_EDGE('',*,*,#184,.T.);
#235=ORIENTED_EDGE('',*,*,#183,.F.);
#236=ORIENTED_EDGE('',*,*,#188,.F.);
#237=ORIENTED_EDGE('',*,*,#168,.F.);
#238=ORIENTED_EDGE('',*,*,#188,.T.);
#239=ORIENTED_EDGE('',*,*,#182,.F.);
#240=ORIENTED_EDGE('',*,*,#187,.F.);
#241=ORIENTED_EDGE('',*,*,#189,.F.);
#242=ORIENTED_EDGE('',*,*,#190,.T.);
#243=ORIENTED_EDGE('',*,*,#162,.T.);
#244=ORIENTED_EDGE('',*,*,#165,.T.);
#245=ORIENTED_EDGE('',*,*,#191,.F.);
#246=ORIENTED_EDGE('',*,*,#189,.T.);
#247=ORIENTED_EDGE('',*,*,#186,.F.);
#248=ORIENTED_EDGE('',*,*,#192,.F.);
#249=ORIENTED_EDGE('',*,*,#193,.F.);
#250=ORIENTED_EDGE('',*,*,#192,.T.);
#251=ORIENTED_EDGE('',*,*,#185,.F.);
#252=ORIENTED_EDGE('',*,*,#194,.F.);
#253=ORIENTED_EDGE('',*,*,#160,.T.);
#254=ORIENTED_EDGE('',*,*,#163,.T.);
#255=ORIENTED_EDGE('',*,*,#170,.F.);
#256=ORIENTED_EDGE('',*,*,#194,.T.);
#257=ORIENTED_EDGE('',*,*,#180,.F.);
#258=ORIENTED_EDGE('',*,*,#195,.F.);
#259=ORIENTED_EDGE('',*,*,#171,.F.);
#260=ORIENTED_EDGE('',*,*,#195,.T.);
#261=ORIENTED_EDGE('',*,*,#179,.F.);
#262=ORIENTED_EDGE('',*,*,#196,.F.);
#263=ORIENTED_EDGE('',*,*,#172,.F.);
#264=ORIENTED_EDGE('',*,*,#196,.T.);
#265=ORIENTED_EDGE('',*,*,#178,.F.);
#266=ORIENTED_EDGE('',*,*,#175,.F.);
#267=ORIENTED_EDGE('',*,*,#169,.F.);
#268=ORIENTED_EDGE('',*,*,#190,.F.);
#269=ORIENTED_EDGE('',*,*,#191,.T.);
#270=ORIENTED_EDGE('',*,*,#193,.T.);
#271=CYLINDRICAL_SURFACE('',#302,1.5);
#272=CYLINDRICAL_SURFACE('',#305,1.5);
#273=ADVANCED_FACE('',(#32),#271,.F.);
#274=ADVANCED_FACE('',(#33),#272,.F.);
#275=ADVANCED_FACE('',(#34),#19,.T.);
#276=ADVANCED_FACE('',(#35),#20,.T.);
#277=ADVANCED_FACE('',(#36),#21,.T.);
#278=ADVANCED_FACE('',(#37),#22,.T.);
#279=ADVANCED_FACE('',(#38),#23,.T.);
#280=ADVANCED_FACE('',(#39),#24,.T.);
#281=ADVANCED_FACE('',(#40,#15,#16),#25,.T.);
#282=ADVANCED_FACE('',(#41),#26,.T.);
#283=ADVANCED_FACE('',(#42,#17,#18),#27,.T.);
#284=ADVANCED_FACE('',(#43),#28,.T.);
#285=ADVANCED_FACE('',(#44),#29,.T.);
#286=ADVANCED_FACE('',(#45),#30,.T.);
#287=ADVANCED_FACE('',(#46),#31,.F.);
#288=CLOSED_SHELL('',(#273,#274,#275,#276,#277,#278,#279,#280,#281,#282,
#283,#284,#285,#286,#287));
#289=DERIVED_UNIT_ELEMENT(#291,1.);
#290=DERIVED_UNIT_ELEMENT(#476,-3.);
#291=(
MASS_UNIT()
NAMED_UNIT(*)
SI_UNIT(.KILO.,.GRAM.)
);
#292=DERIVED_UNIT((#289,#290));
#293=MEASURE_REPRESENTATION_ITEM('density measure',
POSITIVE_RATIO_MEASURE(7850.),#292);
#294=PROPERTY_DEFINITION_REPRESENTATION(#299,#296);
#295=PROPERTY_DEFINITION_REPRESENTATION(#300,#297);
#296=REPRESENTATION('material name',(#298),#473);
#297=REPRESENTATION('density',(#293),#473);
#298=DESCRIPTIVE_REPRESENTATION_ITEM('Acier','Acier');
#299=PROPERTY_DEFINITION('material property','material name',#483);
#300=PROPERTY_DEFINITION('material property','density of part',#483);
#301=AXIS2_PLACEMENT_3D('',#394,#321,#322);
#302=AXIS2_PLACEMENT_3D('',#395,#323,#324);
#303=AXIS2_PLACEMENT_3D('',#397,#325,#326);
#304=AXIS2_PLACEMENT_3D('',#400,#328,#329);
#305=AXIS2_PLACEMENT_3D('',#401,#330,#331);
#306=AXIS2_PLACEMENT_3D('',#403,#332,#333);
#307=AXIS2_PLACEMENT_3D('',#406,#335,#336);
#308=AXIS2_PLACEMENT_3D('',#407,#337,#338);
#309=AXIS2_PLACEMENT_3D('',#424,#347,#348);
#310=AXIS2_PLACEMENT_3D('',#430,#352,#353);
#311=AXIS2_PLACEMENT_3D('',#444,#361,#362);
#312=AXIS2_PLACEMENT_3D('',#446,#364,#365);
#313=AXIS2_PLACEMENT_3D('',#452,#369,#370);
#314=AXIS2_PLACEMENT_3D('',#454,#372,#373);
#315=AXIS2_PLACEMENT_3D('',#458,#376,#377);
#316=AXIS2_PLACEMENT_3D('',#462,#380,#381);
#317=AXIS2_PLACEMENT_3D('',#465,#384,#385);
#318=AXIS2_PLACEMENT_3D('',#467,#387,#388);
#319=AXIS2_PLACEMENT_3D('',#469,#390,#391);
#320=AXIS2_PLACEMENT_3D('',#470,#392,#393);
#321=DIRECTION('axis',(0.,0.,1.));
#322=DIRECTION('refdir',(1.,0.,0.));
#323=DIRECTION('center_axis',(-1.,0.,0.));
#324=DIRECTION('ref_axis',(0.,1.,0.));
#325=DIRECTION('center_axis',(-1.,0.,0.));
#326=DIRECTION('ref_axis',(0.,1.,0.));
#327=DIRECTION('',(-1.,0.,0.));
#328=DIRECTION('center_axis',(1.,0.,0.));
#329=DIRECTION('ref_axis',(0.,1.,0.));
#330=DIRECTION('center_axis',(-1.,0.,0.));
#331=DIRECTION('ref_axis',(0.,1.,0.));
#332=DIRECTION('center_axis',(-1.,0.,0.));
#333=DIRECTION('ref_axis',(0.,1.,0.));
#334=DIRECTION('',(-1.,0.,0.));
#335=DIRECTION('center_axis',(1.,0.,0.));
#336=DIRECTION('ref_axis',(0.,1.,0.));
#337=DIRECTION('center_axis',(0.,-0.942990334223797,0.332820115919232));
#338=DIRECTION('ref_axis',(0.,-0.332820115919232,-0.942990334223797));
#339=DIRECTION('',(-0.723404270968928,-0.229787227331448,-0.651063814767215));
#340=DIRECTION('',(0.647068945596865,-0.253752537471699,-0.718965527247889));
#341=DIRECTION('',(0.,-0.332820115919232,-0.942990334223797));
#342=DIRECTION('',(1.,0.,0.));
#343=DIRECTION('',(1.,0.,0.));
#344=DIRECTION('',(0.,0.332820115919232,0.942990334223797));
#345=DIRECTION('',(-0.647068945596865,0.253752537471699,0.718965527247889));
#346=DIRECTION('',(1.,0.,0.));
#347=DIRECTION('center_axis',(0.,0.,1.));
#348=DIRECTION('ref_axis',(0.,-1.,0.));
#349=DIRECTION('',(0.,-1.,0.));
#350=DIRECTION('',(0.,1.,0.));
#351=DIRECTION('',(1.,0.,0.));
#352=DIRECTION('center_axis',(0.,0.942990345897476,0.332820082843807));
#353=DIRECTION('ref_axis',(0.,-0.332820082843807,0.942990345897476));
#354=DIRECTION('',(0.72340427523781,-0.229787203006722,0.651063818609209));
#355=DIRECTION('',(0.647068950253291,0.253752510938693,-0.718965532421696));
#356=DIRECTION('',(0.,0.332820082843807,-0.942990345897476));
#357=DIRECTION('',(-1.,0.,0.));
#358=DIRECTION('',(-1.,0.,0.));
#359=DIRECTION('',(0.,-0.332820082843807,0.942990345897476));
#360=DIRECTION('',(-0.647068950253291,-0.253752510938693,0.718965532421696));
#361=DIRECTION('center_axis',(-0.668964715100321,0.,0.743294161117082));
#362=DIRECTION('ref_axis',(0.743294161117082,0.,0.668964715100321));
#363=DIRECTION('',(0.,1.,0.));
#364=DIRECTION('center_axis',(0.,1.,0.));
#365=DIRECTION('ref_axis',(0.,0.,1.));
#366=DIRECTION('',(0.,0.,-1.));
#367=DIRECTION('',(-1.,0.,0.));
#368=DIRECTION('',(0.,0.,1.));
#369=DIRECTION('center_axis',(-0.743294161117082,0.,-0.668964715100321));
#370=DIRECTION('ref_axis',(-0.668964715100321,0.,0.743294161117082));
#371=DIRECTION('',(0.,1.,0.));
#372=DIRECTION('center_axis',(-1.,0.,0.));
#373=DIRECTION('ref_axis',(0.,0.,1.));
#374=DIRECTION('',(0.,1.,0.));
#375=DIRECTION('',(0.,0.,1.));
#376=DIRECTION('center_axis',(0.,0.,-1.));
#377=DIRECTION('ref_axis',(-1.,0.,0.));
#378=DIRECTION('',(1.,0.,0.));
#379=DIRECTION('',(0.,1.,0.));
#380=DIRECTION('center_axis',(1.,0.,0.));
#381=DIRECTION('ref_axis',(0.,0.,-1.));
#382=DIRECTION('',(0.,0.,1.));
#383=DIRECTION('',(0.,1.,0.));
#384=DIRECTION('center_axis',(0.,0.,-1.));
#385=DIRECTION('ref_axis',(-1.,0.,0.));
#386=DIRECTION('',(0.,1.,0.));
#387=DIRECTION('center_axis',(1.,0.,0.));
#388=DIRECTION('ref_axis',(0.,0.,-1.));
#389=DIRECTION('',(0.,1.,0.));
#390=DIRECTION('center_axis',(0.743294161117082,0.,0.668964715100321));
#391=DIRECTION('ref_axis',(0.668964715100321,0.,-0.743294161117082));
#392=DIRECTION('center_axis',(0.,1.,0.));
#393=DIRECTION('ref_axis',(1.,0.,0.));
#394=CARTESIAN_POINT('',(0.,0.,0.));
#395=CARTESIAN_POINT('Origin',(1.50000004470348,4.00000005960464,3.50000005215406));
#396=CARTESIAN_POINT('',(3.00000004470348,2.50000005960464,3.50000005215406));
#397=CARTESIAN_POINT('Origin',(3.00000004470348,4.00000005960464,3.50000005215406));
#398=CARTESIAN_POINT('',(0.,2.50000005960464,3.50000005215406));
#399=CARTESIAN_POINT('',(1.50000004470348,2.50000005960464,3.50000005215406));
#400=CARTESIAN_POINT('Origin',(0.,4.00000005960464,3.50000005215406));
#401=CARTESIAN_POINT('Origin',(1.50000004470348,41.0000006109476,3.50000005215406));
#402=CARTESIAN_POINT('',(3.00000004470348,39.5000006109476,3.50000005215406));
#403=CARTESIAN_POINT('Origin',(3.00000004470348,41.0000006109476,3.50000005215406));
#404=CARTESIAN_POINT('',(0.,39.5000006109476,3.50000005215406));
#405=CARTESIAN_POINT('',(1.50000004470348,39.5000006109476,3.50000005215406));
#406=CARTESIAN_POINT('Origin',(0.,41.0000006109476,3.50000005215406));
#407=CARTESIAN_POINT('Origin',(3.00000004470348,6.00000008940697,24.0000003576279));
#408=CARTESIAN_POINT('',(-0.0555553577012491,6.00000008940697,24.0000003576279));
#409=CARTESIAN_POINT('',(-4.50000006705523,4.58823537114995,20.0000002980232));
#410=CARTESIAN_POINT('',(-1.85961968103372,5.42694439230567,22.3763425392118));
#411=CARTESIAN_POINT('',(0.,2.82352939444017,15.));
#412=CARTESIAN_POINT('',(-1.4944196053512,3.40957632110195,16.6604663023966));
#413=CARTESIAN_POINT('',(0.,0.,7.));
#414=CARTESIAN_POINT('',(2.77555756156289E-16,1.90153851148871,12.3876924822757));
#415=CARTESIAN_POINT('',(3.00000004470348,0.,7.));
#416=CARTESIAN_POINT('',(1.50000002235174,-1.11022302462516E-15,7.));
#417=CARTESIAN_POINT('',(4.50000006705523,0.,7.));
#418=CARTESIAN_POINT('',(3.00000004470348,0.,7.));
#419=CARTESIAN_POINT('',(4.50000006705523,4.22438207580186,18.9690826215448));
#420=CARTESIAN_POINT('',(4.50000006705523,4.87822530865155,20.8216384593192));
#421=CARTESIAN_POINT('',(-0.0278256930099235,6.00000008940697,24.0000003576279));
#422=CARTESIAN_POINT('',(1.09282791825865,5.56052806803849,22.7548296227771));
#423=CARTESIAN_POINT('',(3.00000004470348,6.00000008940697,24.0000003576279));
#424=CARTESIAN_POINT('Origin',(3.00000004470348,39.0000005811453,24.0000003576279));
#425=CARTESIAN_POINT('',(-0.0555553577012491,39.0000005811453,24.0000003576279));
#426=CARTESIAN_POINT('',(-0.0555553577012494,19.5000002905726,24.0000003576279));
#427=CARTESIAN_POINT('',(-0.0278256930099235,39.0000005811453,24.0000003576279));
#428=CARTESIAN_POINT('',(-0.0278256930099235,19.5000002905726,24.0000003576279));
#429=CARTESIAN_POINT('',(3.00000004470348,39.0000005811453,24.0000003576279));
#430=CARTESIAN_POINT('Origin',(3.00000004470348,45.,7.));
#431=CARTESIAN_POINT('',(-4.50000006705523,40.4117651416253,20.0000002980232));
#432=CARTESIAN_POINT('',(-2.62150322189568,39.8150662407731,21.690647383089));
#433=CARTESIAN_POINT('',(4.50000006705523,40.7756183963096,18.9690826215448));
#434=CARTESIAN_POINT('',(1.84539044248244,39.7345950903178,21.918649002926));
#435=CARTESIAN_POINT('',(4.50000006705523,45.,7.));
#436=CARTESIAN_POINT('',(4.50000006705523,40.6294677297137,19.3831762257193));
#437=CARTESIAN_POINT('',(3.00000004470348,45.,7.));
#438=CARTESIAN_POINT('',(3.00000004470348,45.,7.));
#439=CARTESIAN_POINT('',(0.,45.,7.));
#440=CARTESIAN_POINT('',(1.50000002235174,45.,6.99999999999999));
#441=CARTESIAN_POINT('',(0.,42.1764709211138,15.));
#442=CARTESIAN_POINT('',(0.,43.6061542679052,10.949230039861));
#443=CARTESIAN_POINT('',(-0.741857002186347,41.885546627824,15.8242855948333));
#444=CARTESIAN_POINT('Origin',(-4.50000006705523,0.,20.0000002980232));
#445=CARTESIAN_POINT('',(-4.50000006705523,0.,20.0000002980232));
#446=CARTESIAN_POINT('Origin',(0.,45.,12.0068942943126));
#447=CARTESIAN_POINT('',(3.00000004470348,45.,0.));
#448=CARTESIAN_POINT('',(3.00000004470348,45.,0.));
#449=CARTESIAN_POINT('',(0.,45.,0.));
#450=CARTESIAN_POINT('',(0.,45.,0.));
#451=CARTESIAN_POINT('',(0.,45.,0.));
#452=CARTESIAN_POINT('Origin',(0.,0.,15.));
#453=CARTESIAN_POINT('',(0.,0.,15.));
#454=CARTESIAN_POINT('Origin',(0.,0.,0.));
#455=CARTESIAN_POINT('',(0.,0.,0.));
#456=CARTESIAN_POINT('',(0.,0.,0.));
#457=CARTESIAN_POINT('',(0.,0.,0.));
#458=CARTESIAN_POINT('Origin',(3.00000004470348,0.,0.));
#459=CARTESIAN_POINT('',(3.00000004470348,0.,0.));
#460=CARTESIAN_POINT('',(0.,0.,0.));
#461=CARTESIAN_POINT('',(3.00000004470348,0.,0.));
#462=CARTESIAN_POINT('Origin',(3.00000004470348,0.,7.));
#463=CARTESIAN_POINT('',(3.00000004470348,0.,0.));
#464=CARTESIAN_POINT('',(3.00000004470348,0.,7.));
#465=CARTESIAN_POINT('Origin',(4.50000006705523,0.,7.));
#466=CARTESIAN_POINT('',(4.50000006705523,0.,7.));
#467=CARTESIAN_POINT('Origin',(4.50000006705523,0.,18.9690826215448));
#468=CARTESIAN_POINT('',(4.50000006705523,0.,18.9690826215448));
#469=CARTESIAN_POINT('Origin',(-0.040235100352734,0.,24.0137885886252));
#470=CARTESIAN_POINT('Origin',(0.,0.,12.0068942943126));
#471=UNCERTAINTY_MEASURE_WITH_UNIT(LENGTH_MEASURE(0.01),#475,
'DISTANCE_ACCURACY_VALUE',
'Maximum model space distance between geometric entities at asserted c
onnectivities');
#472=UNCERTAINTY_MEASURE_WITH_UNIT(LENGTH_MEASURE(0.01),#475,
'DISTANCE_ACCURACY_VALUE',
'Maximum model space distance between geometric entities at asserted c
onnectivities');
#473=(
GEOMETRIC_REPRESENTATION_CONTEXT(3)
GLOBAL_UNCERTAINTY_ASSIGNED_CONTEXT((#471))
GLOBAL_UNIT_ASSIGNED_CONTEXT((#475,#477,#478))
REPRESENTATION_CONTEXT('','3D')
);
#474=(
GEOMETRIC_REPRESENTATION_CONTEXT(3)
GLOBAL_UNCERTAINTY_ASSIGNED_CONTEXT((#472))
GLOBAL_UNIT_ASSIGNED_CONTEXT((#475,#477,#478))
REPRESENTATION_CONTEXT('','3D')
);
#475=(
LENGTH_UNIT()
NAMED_UNIT(*)
SI_UNIT(.MILLI.,.METRE.)
);
#476=(
LENGTH_UNIT()
NAMED_UNIT(*)
SI_UNIT($,.METRE.)
);
#477=(
NAMED_UNIT(*)
PLANE_ANGLE_UNIT()
SI_UNIT($,.RADIAN.)
);
#478=(
NAMED_UNIT(*)
SI_UNIT($,.STERADIAN.)
SOLID_ANGLE_UNIT()
);
#479=SHAPE_DEFINITION_REPRESENTATION(#480,#481);
#480=PRODUCT_DEFINITION_SHAPE('',$,#483);
#481=SHAPE_REPRESENTATION('',(#301),#473);
#482=PRODUCT_DEFINITION_CONTEXT('part definition',#487,'design');
#483=PRODUCT_DEFINITION('Brake Guide V1','Brake Guide V1 v1',#484,#482);
#484=PRODUCT_DEFINITION_FORMATION('',$,#489);
#485=PRODUCT_RELATED_PRODUCT_CATEGORY('Brake Guide V1 v1',
'Brake Guide V1 v1',(#489));
#486=APPLICATION_PROTOCOL_DEFINITION('international standard',
'automotive_design',2009,#487);
#487=APPLICATION_CONTEXT(
'Core Data for Automotive Mechanical Design Process');
#488=PRODUCT_CONTEXT('part definition',#487,'mechanical');
#489=PRODUCT('Brake Guide V1','Brake Guide V1 v1',$,(#488));
#490=PRESENTATION_STYLE_ASSIGNMENT((#491));
#491=SURFACE_STYLE_USAGE(.BOTH.,#492);
#492=SURFACE_SIDE_STYLE('',(#493));
#493=SURFACE_STYLE_FILL_AREA(#494);
#494=FILL_AREA_STYLE('Acier - Satin\X\E9',(#495));
#495=FILL_AREA_STYLE_COLOUR('Acier - Satin\X\E9',#496);
#496=COLOUR_RGB('Acier - Satin\X\E9',0.627450980392157,0.627450980392157,
0.627450980392157);
ENDSEC;
END-ISO-10303-21;
