ISO-10303-21;
HEADER;
/* Generated by software containing ST-Developer
 * from STEP Tools, Inc. (www.steptools.com) 
 */

FILE_DESCRIPTION(
/* description */ (''),
/* implementation_level */ '2;1');

FILE_NAME(
/* name */ 'Piston v2.step',
/* time_stamp */ '2024-08-18T15:53:17+02:00',
/* author */ (''),
/* organization */ (''),
/* preprocessor_version */ 'ST-DEVELOPER v20',
/* originating_system */ 'Autodesk Translation Framework v12.20.1.177',

/* authorisation */ '');

FILE_SCHEMA (('AUTOMOTIVE_DESIGN { 1 0 10303 214 3 1 1 }'));
ENDSEC;

DATA;
#10=MECHANICAL_DESIGN_GEOMETRIC_PRESENTATION_REPRESENTATION('',(#13),#287);
#11=SHAPE_REPRESENTATION_RELATIONSHIP('SRR','None',#294,#12);
#12=ADVANCED_BREP_SHAPE_REPRESENTATION('',(#14),#286);
#13=STYLED_ITEM('',(#303),#14);
#14=MANIFOLD_SOLID_BREP('Corps1',#151);
#15=FACE_BOUND('',#39,.T.);
#16=FACE_BOUND('',#42,.T.);
#17=FACE_BOUND('',#46,.T.);
#18=FACE_BOUND('',#48,.T.);
#19=PLANE('',#176);
#20=PLANE('',#181);
#21=PLANE('',#187);
#22=PLANE('',#188);
#23=TOROIDAL_SURFACE('',#168,9.00000014901161,1.);
#24=TOROIDAL_SURFACE('',#178,9.80000014901161,0.2);
#25=FACE_OUTER_BOUND('',#35,.T.);
#26=FACE_OUTER_BOUND('',#36,.T.);
#27=FACE_OUTER_BOUND('',#37,.T.);
#28=FACE_OUTER_BOUND('',#38,.T.);
#29=FACE_OUTER_BOUND('',#40,.T.);
#30=FACE_OUTER_BOUND('',#41,.T.);
#31=FACE_OUTER_BOUND('',#43,.T.);
#32=FACE_OUTER_BOUND('',#44,.T.);
#33=FACE_OUTER_BOUND('',#45,.T.);
#34=FACE_OUTER_BOUND('',#47,.T.);
#35=EDGE_LOOP('',(#101,#102,#103,#104));
#36=EDGE_LOOP('',(#105,#106,#107,#108,#109));
#37=EDGE_LOOP('',(#110,#111,#112,#113,#114,#115));
#38=EDGE_LOOP('',(#116));
#39=EDGE_LOOP('',(#117));
#40=EDGE_LOOP('',(#118,#119,#120,#121,#122));
#41=EDGE_LOOP('',(#123));
#42=EDGE_LOOP('',(#124));
#43=EDGE_LOOP('',(#125,#126,#127,#128));
#44=EDGE_LOOP('',(#129,#130,#131,#132));
#45=EDGE_LOOP('',(#133));
#46=EDGE_LOOP('',(#134));
#47=EDGE_LOOP('',(#135));
#48=EDGE_LOOP('',(#136));
#49=LINE('',#248,#53);
#50=LINE('',#260,#54);
#51=LINE('',#276,#55);
#52=LINE('',#280,#56);
#53=VECTOR('',#195,8.00000011920929);
#54=VECTOR('',#210,10.0000001490116);
#55=VECTOR('',#231,2.);
#56=VECTOR('',#236,7.);
#57=CIRCLE('',#166,8.00000011920929);
#58=CIRCLE('',#167,8.00000011920929);
#59=CIRCLE('',#169,9.00000014901161);
#60=CIRCLE('',#170,1.);
#61=CIRCLE('',#171,10.0000001490116);
#62=CIRCLE('',#172,10.0000001490116);
#63=CIRCLE('',#174,10.0000001490116);
#64=CIRCLE('',#175,10.0000001490116);
#65=CIRCLE('',#177,7.);
#66=CIRCLE('',#179,0.2);
#67=CIRCLE('',#180,9.80000014901161);
#68=CIRCLE('',#183,2.);
#69=CIRCLE('',#184,2.);
#70=CIRCLE('',#186,7.);
#71=VERTEX_POINT('',#245);
#72=VERTEX_POINT('',#247);
#73=VERTEX_POINT('',#251);
#74=VERTEX_POINT('',#253);
#75=VERTEX_POINT('',#255);
#76=VERTEX_POINT('',#259);
#77=VERTEX_POINT('',#261);
#78=VERTEX_POINT('',#265);
#79=VERTEX_POINT('',#268);
#80=VERTEX_POINT('',#273);
#81=VERTEX_POINT('',#275);
#82=VERTEX_POINT('',#279);
#83=EDGE_CURVE('',#71,#71,#57,.T.);
#84=EDGE_CURVE('',#71,#72,#49,.T.);
#85=EDGE_CURVE('',#72,#72,#58,.T.);
#86=EDGE_CURVE('',#73,#73,#59,.T.);
#87=EDGE_CURVE('',#73,#74,#60,.T.);
#88=EDGE_CURVE('',#74,#75,#61,.T.);
#89=EDGE_CURVE('',#75,#74,#62,.T.);
#90=EDGE_CURVE('',#75,#76,#50,.T.);
#91=EDGE_CURVE('',#77,#76,#63,.T.);
#92=EDGE_CURVE('',#76,#77,#64,.T.);
#93=EDGE_CURVE('',#78,#78,#65,.T.);
#94=EDGE_CURVE('',#77,#79,#66,.T.);
#95=EDGE_CURVE('',#79,#79,#67,.T.);
#96=EDGE_CURVE('',#80,#80,#68,.T.);
#97=EDGE_CURVE('',#80,#81,#51,.T.);
#98=EDGE_CURVE('',#81,#81,#69,.T.);
#99=EDGE_CURVE('',#78,#82,#52,.T.);
#100=EDGE_CURVE('',#82,#82,#70,.T.);
#101=ORIENTED_EDGE('',*,*,#83,.F.);
#102=ORIENTED_EDGE('',*,*,#84,.T.);
#103=ORIENTED_EDGE('',*,*,#85,.T.);
#104=ORIENTED_EDGE('',*,*,#84,.F.);
#105=ORIENTED_EDGE('',*,*,#86,.T.);
#106=ORIENTED_EDGE('',*,*,#87,.T.);
#107=ORIENTED_EDGE('',*,*,#88,.T.);
#108=ORIENTED_EDGE('',*,*,#89,.T.);
#109=ORIENTED_EDGE('',*,*,#87,.F.);
#110=ORIENTED_EDGE('',*,*,#89,.F.);
#111=ORIENTED_EDGE('',*,*,#90,.T.);
#112=ORIENTED_EDGE('',*,*,#91,.F.);
#113=ORIENTED_EDGE('',*,*,#92,.F.);
#114=ORIENTED_EDGE('',*,*,#90,.F.);
#115=ORIENTED_EDGE('',*,*,#88,.F.);
#116=ORIENTED_EDGE('',*,*,#86,.F.);
#117=ORIENTED_EDGE('',*,*,#93,.T.);
#118=ORIENTED_EDGE('',*,*,#92,.T.);
#119=ORIENTED_EDGE('',*,*,#94,.T.);
#120=ORIENTED_EDGE('',*,*,#95,.T.);
#121=ORIENTED_EDGE('',*,*,#94,.F.);
#122=ORIENTED_EDGE('',*,*,#91,.T.);
#123=ORIENTED_EDGE('',*,*,#95,.F.);
#124=ORIENTED_EDGE('',*,*,#85,.F.);
#125=ORIENTED_EDGE('',*,*,#96,.F.);
#126=ORIENTED_EDGE('',*,*,#97,.T.);
#127=ORIENTED_EDGE('',*,*,#98,.F.);
#128=ORIENTED_EDGE('',*,*,#97,.F.);
#129=ORIENTED_EDGE('',*,*,#93,.F.);
#130=ORIENTED_EDGE('',*,*,#99,.T.);
#131=ORIENTED_EDGE('',*,*,#100,.T.);
#132=ORIENTED_EDGE('',*,*,#99,.F.);
#133=ORIENTED_EDGE('',*,*,#100,.F.);
#134=ORIENTED_EDGE('',*,*,#98,.T.);
#135=ORIENTED_EDGE('',*,*,#83,.T.);
#136=ORIENTED_EDGE('',*,*,#96,.T.);
#137=CYLINDRICAL_SURFACE('',#165,8.00000011920929);
#138=CYLINDRICAL_SURFACE('',#173,10.0000001490116);
#139=CYLINDRICAL_SURFACE('',#182,2.);
#140=CYLINDRICAL_SURFACE('',#185,7.);
#141=ADVANCED_FACE('',(#25),#137,.T.);
#142=ADVANCED_FACE('',(#26),#23,.T.);
#143=ADVANCED_FACE('',(#27),#138,.T.);
#144=ADVANCED_FACE('',(#28,#15),#19,.T.);
#145=ADVANCED_FACE('',(#29),#24,.T.);
#146=ADVANCED_FACE('',(#30,#16),#20,.T.);
#147=ADVANCED_FACE('',(#31),#139,.F.);
#148=ADVANCED_FACE('',(#32),#140,.F.);
#149=ADVANCED_FACE('',(#33,#17),#21,.T.);
#150=ADVANCED_FACE('',(#34,#18),#22,.F.);
#151=CLOSED_SHELL('',(#141,#142,#143,#144,#145,#146,#147,#148,#149,#150));
#152=DERIVED_UNIT_ELEMENT(#154,1.);
#153=DERIVED_UNIT_ELEMENT(#289,-3.);
#154=(
MASS_UNIT()
NAMED_UNIT(*)
SI_UNIT(.KILO.,.GRAM.)
);
#155=DERIVED_UNIT((#152,#153));
#156=MEASURE_REPRESENTATION_ITEM('density measure',
POSITIVE_RATIO_MEASURE(7850.),#155);
#157=PROPERTY_DEFINITION_REPRESENTATION(#162,#159);
#158=PROPERTY_DEFINITION_REPRESENTATION(#163,#160);
#159=REPRESENTATION('material name',(#161),#286);
#160=REPRESENTATION('density',(#156),#286);
#161=DESCRIPTIVE_REPRESENTATION_ITEM('Acier','Acier');
#162=PROPERTY_DEFINITION('material property','material name',#296);
#163=PROPERTY_DEFINITION('material property','density of part',#296);
#164=AXIS2_PLACEMENT_3D('',#243,#189,#190);
#165=AXIS2_PLACEMENT_3D('',#244,#191,#192);
#166=AXIS2_PLACEMENT_3D('',#246,#193,#194);
#167=AXIS2_PLACEMENT_3D('',#249,#196,#197);
#168=AXIS2_PLACEMENT_3D('',#250,#198,#199);
#169=AXIS2_PLACEMENT_3D('',#252,#200,#201);
#170=AXIS2_PLACEMENT_3D('',#254,#202,#203);
#171=AXIS2_PLACEMENT_3D('',#256,#204,#205);
#172=AXIS2_PLACEMENT_3D('',#257,#206,#207);
#173=AXIS2_PLACEMENT_3D('',#258,#208,#209);
#174=AXIS2_PLACEMENT_3D('',#262,#211,#212);
#175=AXIS2_PLACEMENT_3D('',#263,#213,#214);
#176=AXIS2_PLACEMENT_3D('',#264,#215,#216);
#177=AXIS2_PLACEMENT_3D('',#266,#217,#218);
#178=AXIS2_PLACEMENT_3D('',#267,#219,#220);
#179=AXIS2_PLACEMENT_3D('',#269,#221,#222);
#180=AXIS2_PLACEMENT_3D('',#270,#223,#224);
#181=AXIS2_PLACEMENT_3D('',#271,#225,#226);
#182=AXIS2_PLACEMENT_3D('',#272,#227,#228);
#183=AXIS2_PLACEMENT_3D('',#274,#229,#230);
#184=AXIS2_PLACEMENT_3D('',#277,#232,#233);
#185=AXIS2_PLACEMENT_3D('',#278,#234,#235);
#186=AXIS2_PLACEMENT_3D('',#281,#237,#238);
#187=AXIS2_PLACEMENT_3D('',#282,#239,#240);
#188=AXIS2_PLACEMENT_3D('',#283,#241,#242);
#189=DIRECTION('axis',(0.,0.,1.));
#190=DIRECTION('refdir',(1.,0.,0.));
#191=DIRECTION('center_axis',(0.,1.,0.));
#192=DIRECTION('ref_axis',(1.,0.,0.));
#193=DIRECTION('center_axis',(0.,-1.,0.));
#194=DIRECTION('ref_axis',(1.,0.,0.));
#195=DIRECTION('',(0.,1.,0.));
#196=DIRECTION('center_axis',(0.,-1.,0.));
#197=DIRECTION('ref_axis',(1.,0.,0.));
#198=DIRECTION('center_axis',(0.,1.,0.));
#199=DIRECTION('ref_axis',(0.,0.,1.));
#200=DIRECTION('center_axis',(0.,-1.,0.));
#201=DIRECTION('ref_axis',(1.,0.,0.));
#202=DIRECTION('center_axis',(-1.,0.,1.22464679914735E-16));
#203=DIRECTION('ref_axis',(-1.22464679914735E-16,0.,-1.));
#204=DIRECTION('center_axis',(0.,1.,0.));
#205=DIRECTION('ref_axis',(1.,0.,0.));
#206=DIRECTION('center_axis',(0.,1.,0.));
#207=DIRECTION('ref_axis',(1.,0.,0.));
#208=DIRECTION('center_axis',(0.,1.,0.));
#209=DIRECTION('ref_axis',(1.,0.,0.));
#210=DIRECTION('',(0.,-1.,0.));
#211=DIRECTION('center_axis',(0.,-1.,0.));
#212=DIRECTION('ref_axis',(1.,0.,0.));
#213=DIRECTION('center_axis',(0.,-1.,0.));
#214=DIRECTION('ref_axis',(1.,0.,0.));
#215=DIRECTION('center_axis',(0.,1.,0.));
#216=DIRECTION('ref_axis',(1.,0.,0.));
#217=DIRECTION('center_axis',(0.,-1.,0.));
#218=DIRECTION('ref_axis',(-1.,0.,0.));
#219=DIRECTION('center_axis',(0.,1.,0.));
#220=DIRECTION('ref_axis',(0.,0.,1.));
#221=DIRECTION('center_axis',(-1.,0.,1.22464679914735E-16));
#222=DIRECTION('ref_axis',(-1.22464679914735E-16,0.,-1.));
#223=DIRECTION('center_axis',(0.,1.,0.));
#224=DIRECTION('ref_axis',(1.,0.,0.));
#225=DIRECTION('center_axis',(0.,-1.,0.));
#226=DIRECTION('ref_axis',(1.,0.,0.));
#227=DIRECTION('center_axis',(0.,1.,0.));
#228=DIRECTION('ref_axis',(1.,0.,0.));
#229=DIRECTION('center_axis',(0.,1.,0.));
#230=DIRECTION('ref_axis',(1.,0.,0.));
#231=DIRECTION('',(0.,1.,0.));
#232=DIRECTION('center_axis',(0.,-1.,0.));
#233=DIRECTION('ref_axis',(1.,0.,0.));
#234=DIRECTION('center_axis',(0.,-1.,0.));
#235=DIRECTION('ref_axis',(-1.,0.,0.));
#236=DIRECTION('',(0.,-1.,0.));
#237=DIRECTION('center_axis',(0.,-1.,0.));
#238=DIRECTION('ref_axis',(-1.,0.,0.));
#239=DIRECTION('center_axis',(0.,1.,0.));
#240=DIRECTION('ref_axis',(-1.,0.,0.));
#241=DIRECTION('center_axis',(0.,1.,0.));
#242=DIRECTION('ref_axis',(1.,0.,0.));
#243=CARTESIAN_POINT('',(0.,0.,0.));
#244=CARTESIAN_POINT('Origin',(0.,0.,0.));
#245=CARTESIAN_POINT('',(-8.00000011920929,0.,-9.7971745391681E-16));
#246=CARTESIAN_POINT('Origin',(0.,0.,0.));
#247=CARTESIAN_POINT('',(-8.00000011920929,115.,-9.7971745391681E-16));
#248=CARTESIAN_POINT('',(-8.00000011920929,0.,9.7971745391681E-16));
#249=CARTESIAN_POINT('Origin',(0.,115.,0.));
#250=CARTESIAN_POINT('Origin',(0.,122.,0.));
#251=CARTESIAN_POINT('',(-1.10218213748128E-15,123.,-9.00000014901161));
#252=CARTESIAN_POINT('Origin',(0.,123.,0.));
#253=CARTESIAN_POINT('',(-1.22464681739601E-15,122.,-10.0000001490116));
#254=CARTESIAN_POINT('Origin',(-1.10218213748128E-15,122.,-9.00000014901161));
#255=CARTESIAN_POINT('',(-10.0000001490116,122.,1.22464681739601E-15));
#256=CARTESIAN_POINT('Origin',(0.,122.,0.));
#257=CARTESIAN_POINT('Origin',(0.,122.,0.));
#258=CARTESIAN_POINT('Origin',(0.,0.,0.));
#259=CARTESIAN_POINT('',(-10.0000001490116,115.2,-1.22464681739601E-15));
#260=CARTESIAN_POINT('',(-10.0000001490116,0.,1.22464681739601E-15));
#261=CARTESIAN_POINT('',(-1.22464681739601E-15,115.2,-10.0000001490116));
#262=CARTESIAN_POINT('Origin',(0.,115.2,0.));
#263=CARTESIAN_POINT('Origin',(0.,115.2,0.));
#264=CARTESIAN_POINT('Origin',(0.,123.,0.));
#265=CARTESIAN_POINT('',(7.,123.,-8.57252759403147E-16));
#266=CARTESIAN_POINT('Origin',(0.,123.,0.));
#267=CARTESIAN_POINT('Origin',(0.,115.2,0.));
#268=CARTESIAN_POINT('',(-1.20015388141307E-15,115.,-9.80000014901161));
#269=CARTESIAN_POINT('Origin',(-1.20015388141307E-15,115.2,-9.80000014901161));
#270=CARTESIAN_POINT('Origin',(0.,115.,0.));
#271=CARTESIAN_POINT('Origin',(0.,115.,0.));
#272=CARTESIAN_POINT('Origin',(0.,0.,0.));
#273=CARTESIAN_POINT('',(-2.,0.,-2.44929359829471E-16));
#274=CARTESIAN_POINT('Origin',(0.,0.,0.));
#275=CARTESIAN_POINT('',(-2.,3.00000000000001,-2.44929359829471E-16));
#276=CARTESIAN_POINT('',(-2.,0.,2.44929359829471E-16));
#277=CARTESIAN_POINT('Origin',(0.,3.00000000000001,0.));
#278=CARTESIAN_POINT('Origin',(0.,123.,0.));
#279=CARTESIAN_POINT('',(7.,3.00000000000001,-8.57252759403147E-16));
#280=CARTESIAN_POINT('',(7.,123.,8.57252759403147E-16));
#281=CARTESIAN_POINT('Origin',(0.,3.00000000000001,0.));
#282=CARTESIAN_POINT('Origin',(0.,3.00000000000001,0.));
#283=CARTESIAN_POINT('Origin',(0.,0.,0.));
#284=UNCERTAINTY_MEASURE_WITH_UNIT(LENGTH_MEASURE(0.01),#288,
'DISTANCE_ACCURACY_VALUE',
'Maximum model space distance between geometric entities at asserted c
onnectivities');
#285=UNCERTAINTY_MEASURE_WITH_UNIT(LENGTH_MEASURE(0.01),#288,
'DISTANCE_ACCURACY_VALUE',
'Maximum model space distance between geometric entities at asserted c
onnectivities');
#286=(
GEOMETRIC_REPRESENTATION_CONTEXT(3)
GLOBAL_UNCERTAINTY_ASSIGNED_CONTEXT((#284))
GLOBAL_UNIT_ASSIGNED_CONTEXT((#288,#290,#291))
REPRESENTATION_CONTEXT('','3D')
);
#287=(
GEOMETRIC_REPRESENTATION_CONTEXT(3)
GLOBAL_UNCERTAINTY_ASSIGNED_CONTEXT((#285))
GLOBAL_UNIT_ASSIGNED_CONTEXT((#288,#290,#291))
REPRESENTATION_CONTEXT('','3D')
);
#288=(
LENGTH_UNIT()
NAMED_UNIT(*)
SI_UNIT(.MILLI.,.METRE.)
);
#289=(
LENGTH_UNIT()
NAMED_UNIT(*)
SI_UNIT($,.METRE.)
);
#290=(
NAMED_UNIT(*)
PLANE_ANGLE_UNIT()
SI_UNIT($,.RADIAN.)
);
#291=(
NAMED_UNIT(*)
SI_UNIT($,.STERADIAN.)
SOLID_ANGLE_UNIT()
);
#292=SHAPE_DEFINITION_REPRESENTATION(#293,#294);
#293=PRODUCT_DEFINITION_SHAPE('',$,#296);
#294=SHAPE_REPRESENTATION('',(#164),#286);
#295=PRODUCT_DEFINITION_CONTEXT('part definition',#300,'design');
#296=PRODUCT_DEFINITION('Piston','Piston v1',#297,#295);
#297=PRODUCT_DEFINITION_FORMATION('',$,#302);
#298=PRODUCT_RELATED_PRODUCT_CATEGORY('Piston v1','Piston v1',(#302));
#299=APPLICATION_PROTOCOL_DEFINITION('international standard',
'automotive_design',2009,#300);
#300=APPLICATION_CONTEXT(
'Core Data for Automotive Mechanical Design Process');
#301=PRODUCT_CONTEXT('part definition',#300,'mechanical');
#302=PRODUCT('Piston','Piston v1',$,(#301));
#303=PRESENTATION_STYLE_ASSIGNMENT((#304));
#304=SURFACE_STYLE_USAGE(.BOTH.,#305);
#305=SURFACE_SIDE_STYLE('',(#306));
#306=SURFACE_STYLE_FILL_AREA(#307);
#307=FILL_AREA_STYLE('Acier - Satin\X\E9',(#308));
#308=FILL_AREA_STYLE_COLOUR('Acier - Satin\X\E9',#309);
#309=COLOUR_RGB('Acier - Satin\X\E9',0.627450980392157,0.627450980392157,
0.627450980392157);
ENDSEC;
END-ISO-10303-21;
