ISO-10303-21;
HEADER;
/* Generated by software containing ST-Developer
 * from STEP Tools, Inc. (www.steptools.com) 
 */

FILE_DESCRIPTION(
/* description */ ('Alibre Inc.'),
/* implementation_level */ '2;1');

FILE_NAME(
/* name */ 'export-E87AABDB-7BA2-4E9E-A057-E2332CCA0BC2',
/* time_stamp */ '2024-08-17T19:20:06+02:00',
/* author */ (''),
/* organization */ (''),
/* preprocessor_version */ 'ST-DEVELOPER v17',
/* originating_system */ 'Alibre',
/* authorisation */ '');

FILE_SCHEMA (('CONFIG_CONTROL_DESIGN'));
ENDSEC;

DATA;
#10=MECHANICAL_CONTEXT('detailed design',#18,'mechanical');
#11=PRODUCT_RELATED_PRODUCT_CATEGORY('detail','',(#98));
#12=CC_DESIGN_SECURITY_CLASSIFICATION(#14,(#97));
#13=SECURITY_CLASSIFICATION_LEVEL('unclassified');
#14=SECURITY_CLASSIFICATION('name','Security for version',#13);
#15=SHAPE_DEFINITION_REPRESENTATION(#16,#449);
#16=PRODUCT_DEFINITION_SHAPE('','DefinitionDesc',#96);
#17=APPLICATION_PROTOCOL_DEFINITION('AP definition status',
'config_control_design',1994,#18);
#18=APPLICATION_CONTEXT(
'control the configuration of three dimensional design');
#19=DESIGN_CONTEXT('detailed design',#18,'design');
#20=PERSON_AND_ORGANIZATION_ROLE('creator');
#21=PERSON_AND_ORGANIZATION_ROLE('classification_officer');
#22=PERSON_AND_ORGANIZATION_ROLE('creator');
#23=PERSON_AND_ORGANIZATION_ROLE('design_supplier');
#24=PERSON_AND_ORGANIZATION_ROLE('design_owner');
#25=CC_DESIGN_PERSON_AND_ORGANIZATION_ASSIGNMENT(#57,#20,(#96));
#26=CC_DESIGN_PERSON_AND_ORGANIZATION_ASSIGNMENT(#60,#21,(#14));
#27=CC_DESIGN_PERSON_AND_ORGANIZATION_ASSIGNMENT(#61,#22,(#97));
#28=CC_DESIGN_PERSON_AND_ORGANIZATION_ASSIGNMENT(#62,#23,(#97));
#29=CC_DESIGN_PERSON_AND_ORGANIZATION_ASSIGNMENT(#63,#24,(#98));
#30=DATE_TIME_ROLE('creation_date');
#31=DATE_TIME_ROLE('classification_date');
#32=CC_DESIGN_DATE_AND_TIME_ASSIGNMENT(#86,#30,(#96));
#33=CC_DESIGN_DATE_AND_TIME_ASSIGNMENT(#89,#31,(#14));
#34=CC_DESIGN_APPROVAL(#93,(#96));
#35=CC_DESIGN_APPROVAL(#94,(#97));
#36=CC_DESIGN_APPROVAL(#95,(#14));
#37=APPROVAL_PERSON_ORGANIZATION(#56,#93,#64);
#38=APPROVAL_PERSON_ORGANIZATION(#58,#94,#65);
#39=APPROVAL_PERSON_ORGANIZATION(#59,#95,#66);
#40=ORGANIZATION('DEFINITION_APPROVEDBY_ORG_ID',
'DEFINITION_APPROVEDBY_ORG_NAME','DEFINITION_APPROVEDBY_ORG_DESCR');
#41=ORGANIZATION('DEF_CREATOR_ORG_ID','DEF_CREATOR_ORG_NAME',
'DEF_CREATOR_ORG_DESCR');
#42=ORGANIZATION('APPROVEDBY_ORG_ID','APPROVEDBY_ORG_NAME',
'APPROVEDBY_ORG_DESCR');
#43=ORGANIZATION('SECURITY_APPROVEDBY_ORG_ID',
'SECURITY_APPROVEDBY_ORG_NAME','SECURITY_APPROVEDBY_ORG_DESCR');
#44=ORGANIZATION('CLASSOFFICER_ORG_ID','CLASSOFFICER_ORG_NAME',
'CLASSOFFICER_ORG_DESCR');
#45=ORGANIZATION('CREATOR_ORG_ID','CREATOR_ORG_NAME',
'CREATOR_ORG_DESCR');
#46=ORGANIZATION('SUPPLIER_ORG_ID','SUPPLIER_ORG_NAME',
'SUPPLIER_ORG_DESCR');
#47=ORGANIZATION('OWNER_ORG_ID','OWNER_ORG_NAME','OWNER_ORG_DESCR');
#48=PERSON('DEFINITION_approverID','DEFINITION_APPROVEDBY_LASTNAME',
'DEFINITION_APPROVEDBY_FIRSTNAME',$,$,$);
#49=PERSON('DEF_createrID','DEF_CREATOR_LASTNAME',
'DEF_CREATOR_FIRSTNAME',$,$,$);
#50=PERSON('approverID','APPROVEDBY_LASTNAME','APPROVEDBY_FIRSTNAME',$,
$,$);
#51=PERSON('SECURITY_approverID','SECURITY_LASTNAME',
'SECURITY_APPROVEDBY_FIRSTNAME',$,$,$);
#52=PERSON('classifierID','CLASSOFFICER_LASTNAME',
'CLASSOFFICER_FIRSTNAME',$,$,$);
#53=PERSON('createrID','CREATOR_LASTNAME','CREATOR_FIRSTNAME',$,$,$);
#54=PERSON('supplierID','SUPPLIER_LASTNAME','SUPPLIER_FIRSTNAME',$,$,$);
#55=PERSON('ownerID','OWNER_LASTNAME','OWNER_FIRSTNAME',$,$,$);
#56=PERSON_AND_ORGANIZATION(#48,#40);
#57=PERSON_AND_ORGANIZATION(#49,#41);
#58=PERSON_AND_ORGANIZATION(#50,#42);
#59=PERSON_AND_ORGANIZATION(#51,#43);
#60=PERSON_AND_ORGANIZATION(#52,#44);
#61=PERSON_AND_ORGANIZATION(#53,#45);
#62=PERSON_AND_ORGANIZATION(#54,#46);
#63=PERSON_AND_ORGANIZATION(#55,#47);
#64=APPROVAL_ROLE('definition_approval');
#65=APPROVAL_ROLE('version_approval');
#66=APPROVAL_ROLE('security_approval');
#67=APPROVAL_DATE_TIME(#85,#93);
#68=APPROVAL_DATE_TIME(#87,#94);
#69=APPROVAL_DATE_TIME(#88,#95);
#70=COORDINATED_UNIVERSAL_TIME_OFFSET(2,0,.AHEAD.);
#71=COORDINATED_UNIVERSAL_TIME_OFFSET(2,0,.AHEAD.);
#72=COORDINATED_UNIVERSAL_TIME_OFFSET(2,0,.AHEAD.);
#73=COORDINATED_UNIVERSAL_TIME_OFFSET(2,0,.AHEAD.);
#74=COORDINATED_UNIVERSAL_TIME_OFFSET(2,0,.AHEAD.);
#75=LOCAL_TIME(12,37,11.,#70);
#76=LOCAL_TIME(12,37,11.,#71);
#77=LOCAL_TIME(12,37,11.,#72);
#78=LOCAL_TIME(12,37,11.,#73);
#79=LOCAL_TIME(12,37,11.,#74);
#80=CALENDAR_DATE(2024,17,8);
#81=CALENDAR_DATE(2024,17,8);
#82=CALENDAR_DATE(2024,17,8);
#83=CALENDAR_DATE(2024,17,8);
#84=CALENDAR_DATE(2024,17,8);
#85=DATE_AND_TIME(#80,#75);
#86=DATE_AND_TIME(#81,#76);
#87=DATE_AND_TIME(#82,#77);
#88=DATE_AND_TIME(#83,#78);
#89=DATE_AND_TIME(#84,#79);
#90=APPROVAL_STATUS('not_yet_approved');
#91=APPROVAL_STATUS('not_yet_approved');
#92=APPROVAL_STATUS('not_yet_approved');
#93=APPROVAL(#90,'defintion approval');
#94=APPROVAL(#91,'version approval');
#95=APPROVAL(#92,'security approval');
#96=PRODUCT_DEFINITION('DefinitionID','DefinitionDesc',#97,#19);
#97=PRODUCT_DEFINITION_FORMATION_WITH_SPECIFIED_SOURCE(
'PRODUCT_VERSION_ID','PRODUCT_VERSION_DESCR',#98,.NOT_KNOWN.);
#98=PRODUCT('','Support_nozzle_1400_part2','',(#10));
#99=(
LENGTH_UNIT()
NAMED_UNIT(*)
SI_UNIT(.MILLI.,.METRE.)
);
#100=(
NAMED_UNIT(*)
PLANE_ANGLE_UNIT()
SI_UNIT($,.RADIAN.)
);
#101=(
NAMED_UNIT(*)
SI_UNIT($,.STERADIAN.)
SOLID_ANGLE_UNIT()
);
#102=UNCERTAINTY_MEASURE_WITH_UNIT(LENGTH_MEASURE(1.E-6),#99,
'DISTANCE_ACCURACY_VALUE',
'Maximum model space distance between geometric entities at asserted c
onnectivities');
#103=(
GEOMETRIC_REPRESENTATION_CONTEXT(3)
GLOBAL_UNCERTAINTY_ASSIGNED_CONTEXT((#102))
GLOBAL_UNIT_ASSIGNED_CONTEXT((#101,#100,#99))
REPRESENTATION_CONTEXT('ID1','3D')
);
#104=PLANE('',#313);
#105=PLANE('',#314);
#106=PLANE('',#319);
#107=PLANE('',#326);
#108=PLANE('',#329);
#109=PLANE('',#330);
#110=PLANE('',#331);
#111=PLANE('',#332);
#112=CIRCLE('',#311,7.25);
#113=CIRCLE('',#312,7.25);
#114=CIRCLE('',#315,3.);
#115=CIRCLE('',#317,5.5);
#116=CIRCLE('',#318,5.5);
#117=CIRCLE('',#320,3.);
#118=CIRCLE('',#322,3.);
#119=CIRCLE('',#324,5.5);
#120=CIRCLE('',#325,5.5);
#121=CIRCLE('',#327,3.);
#122=VERTEX_POINT('',#387);
#123=VERTEX_POINT('',#388);
#124=VERTEX_POINT('',#390);
#125=VERTEX_POINT('',#392);
#126=VERTEX_POINT('',#396);
#127=VERTEX_POINT('',#398);
#128=VERTEX_POINT('',#400);
#129=VERTEX_POINT('',#402);
#130=VERTEX_POINT('',#405);
#131=VERTEX_POINT('',#407);
#132=VERTEX_POINT('',#411);
#133=VERTEX_POINT('',#413);
#134=VERTEX_POINT('',#416);
#135=VERTEX_POINT('',#419);
#136=VERTEX_POINT('',#422);
#137=VERTEX_POINT('',#424);
#138=VERTEX_POINT('',#427);
#139=VERTEX_POINT('',#431);
#140=VERTEX_POINT('',#433);
#141=VERTEX_POINT('',#437);
#142=VECTOR('',#335,1.);
#143=VECTOR('',#338,1.);
#144=VECTOR('',#342,1.);
#145=VECTOR('',#343,1.);
#146=VECTOR('',#344,1.);
#147=VECTOR('',#345,1.);
#148=VECTOR('',#349,1.);
#149=VECTOR('',#350,1.);
#150=VECTOR('',#376,1.);
#151=VECTOR('',#377,1.);
#152=VECTOR('',#378,1.);
#153=VECTOR('',#380,1.);
#154=VECTOR('',#381,1.);
#155=VECTOR('',#383,1.);
#156=LINE('',#386,#142);
#157=LINE('',#391,#143);
#158=LINE('',#395,#144);
#159=LINE('',#397,#145);
#160=LINE('',#399,#146);
#161=LINE('',#401,#147);
#162=LINE('',#406,#148);
#163=LINE('',#408,#149);
#164=LINE('',#430,#150);
#165=LINE('',#432,#151);
#166=LINE('',#434,#152);
#167=LINE('',#436,#153);
#168=LINE('',#438,#154);
#169=LINE('',#440,#155);
#170=EDGE_CURVE('',#122,#123,#156,.T.);
#171=EDGE_CURVE('',#124,#122,#112,.T.);
#172=EDGE_CURVE('',#125,#124,#157,.T.);
#173=EDGE_CURVE('',#123,#125,#113,.T.);
#174=EDGE_CURVE('',#126,#125,#158,.T.);
#175=EDGE_CURVE('',#126,#127,#159,.T.);
#176=EDGE_CURVE('',#127,#128,#160,.T.);
#177=EDGE_CURVE('',#129,#128,#161,.T.);
#178=EDGE_CURVE('',#123,#129,#158,.T.);
#179=EDGE_CURVE('',#130,#130,#114,.T.);
#180=EDGE_CURVE('',#124,#131,#162,.T.);
#181=EDGE_CURVE('',#131,#126,#163,.T.);
#182=EDGE_CURVE('',#132,#132,#115,.T.);
#183=EDGE_CURVE('',#133,#133,#116,.T.);
#184=EDGE_CURVE('',#134,#134,#117,.T.);
#185=EDGE_CURVE('',#135,#135,#118,.T.);
#186=EDGE_CURVE('',#136,#136,#119,.T.);
#187=EDGE_CURVE('',#137,#137,#120,.T.);
#188=EDGE_CURVE('',#138,#138,#121,.T.);
#189=EDGE_CURVE('',#128,#139,#164,.T.);
#190=EDGE_CURVE('',#140,#139,#165,.T.);
#191=EDGE_CURVE('',#129,#140,#166,.T.);
#192=EDGE_CURVE('',#140,#122,#162,.T.);
#193=EDGE_CURVE('',#139,#141,#167,.T.);
#194=EDGE_CURVE('',#131,#141,#168,.T.);
#195=EDGE_CURVE('',#141,#127,#169,.T.);
#196=ORIENTED_EDGE('',*,*,#170,.F.);
#197=ORIENTED_EDGE('',*,*,#171,.F.);
#198=ORIENTED_EDGE('',*,*,#172,.F.);
#199=ORIENTED_EDGE('',*,*,#173,.F.);
#200=ORIENTED_EDGE('',*,*,#173,.T.);
#201=ORIENTED_EDGE('',*,*,#174,.F.);
#202=ORIENTED_EDGE('',*,*,#175,.T.);
#203=ORIENTED_EDGE('',*,*,#176,.T.);
#204=ORIENTED_EDGE('',*,*,#177,.F.);
#205=ORIENTED_EDGE('',*,*,#178,.F.);
#206=ORIENTED_EDGE('',*,*,#179,.T.);
#207=ORIENTED_EDGE('',*,*,#172,.T.);
#208=ORIENTED_EDGE('',*,*,#180,.T.);
#209=ORIENTED_EDGE('',*,*,#181,.T.);
#210=ORIENTED_EDGE('',*,*,#174,.T.);
#211=ORIENTED_EDGE('',*,*,#182,.F.);
#212=ORIENTED_EDGE('',*,*,#183,.F.);
#213=ORIENTED_EDGE('',*,*,#184,.F.);
#214=ORIENTED_EDGE('',*,*,#182,.T.);
#215=ORIENTED_EDGE('',*,*,#184,.T.);
#216=ORIENTED_EDGE('',*,*,#185,.F.);
#217=ORIENTED_EDGE('',*,*,#186,.F.);
#218=ORIENTED_EDGE('',*,*,#187,.F.);
#219=ORIENTED_EDGE('',*,*,#188,.F.);
#220=ORIENTED_EDGE('',*,*,#186,.T.);
#221=ORIENTED_EDGE('',*,*,#188,.T.);
#222=ORIENTED_EDGE('',*,*,#179,.F.);
#223=ORIENTED_EDGE('',*,*,#189,.T.);
#224=ORIENTED_EDGE('',*,*,#190,.F.);
#225=ORIENTED_EDGE('',*,*,#191,.F.);
#226=ORIENTED_EDGE('',*,*,#177,.T.);
#227=ORIENTED_EDGE('',*,*,#171,.T.);
#228=ORIENTED_EDGE('',*,*,#192,.F.);
#229=ORIENTED_EDGE('',*,*,#190,.T.);
#230=ORIENTED_EDGE('',*,*,#193,.T.);
#231=ORIENTED_EDGE('',*,*,#194,.F.);
#232=ORIENTED_EDGE('',*,*,#180,.F.);
#233=ORIENTED_EDGE('',*,*,#195,.T.);
#234=ORIENTED_EDGE('',*,*,#175,.F.);
#235=ORIENTED_EDGE('',*,*,#181,.F.);
#236=ORIENTED_EDGE('',*,*,#194,.T.);
#237=ORIENTED_EDGE('',*,*,#183,.T.);
#238=ORIENTED_EDGE('',*,*,#187,.T.);
#239=ORIENTED_EDGE('',*,*,#176,.F.);
#240=ORIENTED_EDGE('',*,*,#195,.F.);
#241=ORIENTED_EDGE('',*,*,#193,.F.);
#242=ORIENTED_EDGE('',*,*,#189,.F.);
#243=ORIENTED_EDGE('',*,*,#170,.T.);
#244=ORIENTED_EDGE('',*,*,#178,.T.);
#245=ORIENTED_EDGE('',*,*,#191,.T.);
#246=ORIENTED_EDGE('',*,*,#192,.T.);
#247=ORIENTED_EDGE('',*,*,#185,.T.);
#248=EDGE_LOOP('',(#196,#197,#198,#199));
#249=EDGE_LOOP('',(#200,#201,#202,#203,#204,#205));
#250=EDGE_LOOP('',(#206));
#251=EDGE_LOOP('',(#207,#208,#209,#210));
#252=EDGE_LOOP('',(#211));
#253=EDGE_LOOP('',(#212));
#254=EDGE_LOOP('',(#213));
#255=EDGE_LOOP('',(#214));
#256=EDGE_LOOP('',(#215));
#257=EDGE_LOOP('',(#216));
#258=EDGE_LOOP('',(#217));
#259=EDGE_LOOP('',(#218));
#260=EDGE_LOOP('',(#219));
#261=EDGE_LOOP('',(#220));
#262=EDGE_LOOP('',(#221));
#263=EDGE_LOOP('',(#222));
#264=EDGE_LOOP('',(#223,#224,#225,#226));
#265=EDGE_LOOP('',(#227,#228,#229,#230,#231,#232));
#266=EDGE_LOOP('',(#233,#234,#235,#236));
#267=EDGE_LOOP('',(#237));
#268=EDGE_LOOP('',(#238));
#269=EDGE_LOOP('',(#239,#240,#241,#242));
#270=EDGE_LOOP('',(#243,#244,#245,#246));
#271=EDGE_LOOP('',(#247));
#272=FACE_BOUND('',#248,.T.);
#273=FACE_BOUND('',#249,.T.);
#274=FACE_BOUND('',#250,.T.);
#275=FACE_BOUND('',#251,.T.);
#276=FACE_BOUND('',#252,.T.);
#277=FACE_BOUND('',#253,.T.);
#278=FACE_BOUND('',#254,.T.);
#279=FACE_BOUND('',#255,.T.);
#280=FACE_BOUND('',#256,.T.);
#281=FACE_BOUND('',#257,.T.);
#282=FACE_BOUND('',#258,.T.);
#283=FACE_BOUND('',#259,.T.);
#284=FACE_BOUND('',#260,.T.);
#285=FACE_BOUND('',#261,.T.);
#286=FACE_BOUND('',#262,.T.);
#287=FACE_BOUND('',#263,.T.);
#288=FACE_BOUND('',#264,.T.);
#289=FACE_BOUND('',#265,.T.);
#290=FACE_BOUND('',#266,.T.);
#291=FACE_BOUND('',#267,.T.);
#292=FACE_BOUND('',#268,.T.);
#293=FACE_BOUND('',#269,.T.);
#294=FACE_BOUND('',#270,.T.);
#295=FACE_BOUND('',#271,.T.);
#296=ADVANCED_FACE('',(#272),#442,.F.);
#297=ADVANCED_FACE('',(#273),#104,.T.);
#298=ADVANCED_FACE('',(#274,#275),#105,.F.);
#299=ADVANCED_FACE('',(#276,#277),#443,.F.);
#300=ADVANCED_FACE('',(#278,#279),#106,.F.);
#301=ADVANCED_FACE('',(#280,#281),#444,.F.);
#302=ADVANCED_FACE('',(#282,#283),#445,.F.);
#303=ADVANCED_FACE('',(#284,#285),#107,.F.);
#304=ADVANCED_FACE('',(#286,#287),#446,.F.);
#305=ADVANCED_FACE('',(#288),#108,.T.);
#306=ADVANCED_FACE('',(#289),#109,.T.);
#307=ADVANCED_FACE('',(#290),#110,.T.);
#308=ADVANCED_FACE('',(#291,#292,#293),#111,.T.);
#309=ADVANCED_FACE('',(#294,#295),#105,.F.);
#310=AXIS2_PLACEMENT_3D('',#385,#333,#334);
#311=AXIS2_PLACEMENT_3D('',#389,#336,#337);
#312=AXIS2_PLACEMENT_3D('',#393,#339,#340);
#313=AXIS2_PLACEMENT_3D('',#394,#341,$);
#314=AXIS2_PLACEMENT_3D('',#403,#346,$);
#315=AXIS2_PLACEMENT_3D('',#404,#347,#348);
#316=AXIS2_PLACEMENT_3D('',#409,#351,#352);
#317=AXIS2_PLACEMENT_3D('',#410,#353,#354);
#318=AXIS2_PLACEMENT_3D('',#412,#355,#356);
#319=AXIS2_PLACEMENT_3D('',#414,#357,$);
#320=AXIS2_PLACEMENT_3D('',#415,#358,#359);
#321=AXIS2_PLACEMENT_3D('',#417,#360,#361);
#322=AXIS2_PLACEMENT_3D('',#418,#362,#363);
#323=AXIS2_PLACEMENT_3D('',#420,#364,#365);
#324=AXIS2_PLACEMENT_3D('',#421,#366,#367);
#325=AXIS2_PLACEMENT_3D('',#423,#368,#369);
#326=AXIS2_PLACEMENT_3D('',#425,#370,$);
#327=AXIS2_PLACEMENT_3D('',#426,#371,#372);
#328=AXIS2_PLACEMENT_3D('',#428,#373,#374);
#329=AXIS2_PLACEMENT_3D('',#429,#375,$);
#330=AXIS2_PLACEMENT_3D('',#435,#379,$);
#331=AXIS2_PLACEMENT_3D('',#439,#382,$);
#332=AXIS2_PLACEMENT_3D('',#441,#384,$);
#333=DIRECTION('',(0.,-1.,0.));
#334=DIRECTION('',(7.25,0.,0.));
#335=DIRECTION('',(0.,1.,0.));
#336=DIRECTION('',(0.,1.,0.));
#337=DIRECTION('',(7.25,0.,0.));
#338=DIRECTION('',(0.,-1.,0.));
#339=DIRECTION('',(0.,-1.,0.));
#340=DIRECTION('',(7.25,0.,0.));
#341=DIRECTION('',(0.,1.,0.));
#342=DIRECTION('',(1.,0.,0.));
#343=DIRECTION('',(0.,0.,1.));
#344=DIRECTION('',(1.,0.,0.));
#345=DIRECTION('',(0.,0.,1.));
#346=DIRECTION('',(0.,0.,1.));
#347=DIRECTION('',(0.,0.,1.));
#348=DIRECTION('',(0.,3.,0.));
#349=DIRECTION('',(-1.,0.,0.));
#350=DIRECTION('',(0.,1.,0.));
#351=DIRECTION('',(0.,0.,-1.));
#352=DIRECTION('',(0.,5.5,0.));
#353=DIRECTION('',(0.,0.,1.));
#354=DIRECTION('',(0.,5.5,0.));
#355=DIRECTION('',(0.,0.,-1.));
#356=DIRECTION('',(0.,5.5,0.));
#357=DIRECTION('',(0.,0.,-1.));
#358=DIRECTION('',(0.,0.,1.));
#359=DIRECTION('',(0.,3.,0.));
#360=DIRECTION('',(0.,0.,-1.));
#361=DIRECTION('',(0.,3.,0.));
#362=DIRECTION('',(0.,0.,1.));
#363=DIRECTION('',(0.,3.,0.));
#364=DIRECTION('',(0.,0.,-1.));
#365=DIRECTION('',(0.,5.5,0.));
#366=DIRECTION('',(0.,0.,1.));
#367=DIRECTION('',(0.,5.5,0.));
#368=DIRECTION('',(0.,0.,-1.));
#369=DIRECTION('',(0.,5.5,0.));
#370=DIRECTION('',(0.,0.,-1.));
#371=DIRECTION('',(0.,0.,1.));
#372=DIRECTION('',(0.,3.,0.));
#373=DIRECTION('',(0.,0.,-1.));
#374=DIRECTION('',(0.,3.,0.));
#375=DIRECTION('',(1.,0.,0.));
#376=DIRECTION('',(0.,-1.,0.));
#377=DIRECTION('',(0.,0.,1.));
#378=DIRECTION('',(0.,-1.,0.));
#379=DIRECTION('',(0.,-1.,0.));
#380=DIRECTION('',(-1.,0.,0.));
#381=DIRECTION('',(0.,0.,1.));
#382=DIRECTION('',(-1.,0.,0.));
#383=DIRECTION('',(0.,1.,0.));
#384=DIRECTION('',(0.,0.,1.));
#385=CARTESIAN_POINT('',(30.,20.,0.));
#386=CARTESIAN_POINT('',(37.25,20.,0.));
#387=CARTESIAN_POINT('',(37.25,0.,0.));
#388=CARTESIAN_POINT('',(37.25,20.,0.));
#389=CARTESIAN_POINT('',(30.,0.,0.));
#390=CARTESIAN_POINT('',(22.75,0.,0.));
#391=CARTESIAN_POINT('',(22.75,20.,0.));
#392=CARTESIAN_POINT('',(22.75,20.,0.));
#393=CARTESIAN_POINT('',(30.,20.,0.));
#394=CARTESIAN_POINT('',(30.,20.,0.));
#395=CARTESIAN_POINT('',(0.,20.,0.));
#396=CARTESIAN_POINT('',(0.,20.,0.));
#397=CARTESIAN_POINT('',(0.,20.,0.));
#398=CARTESIAN_POINT('',(0.,20.,20.));
#399=CARTESIAN_POINT('',(0.,20.,20.));
#400=CARTESIAN_POINT('',(60.,20.,20.));
#401=CARTESIAN_POINT('',(60.,20.,0.));
#402=CARTESIAN_POINT('',(60.,20.,0.));
#403=CARTESIAN_POINT('',(30.,10.,0.));
#404=CARTESIAN_POINT('',(7.5,10.,0.));
#405=CARTESIAN_POINT('',(7.5,13.,0.));
#406=CARTESIAN_POINT('',(60.,0.,0.));
#407=CARTESIAN_POINT('',(0.,0.,0.));
#408=CARTESIAN_POINT('',(0.,0.,0.));
#409=CARTESIAN_POINT('',(52.5,10.,20.));
#410=CARTESIAN_POINT('',(52.5,10.,12.));
#411=CARTESIAN_POINT('',(52.5,15.5,12.));
#412=CARTESIAN_POINT('',(52.5,10.,20.));
#413=CARTESIAN_POINT('',(52.5,15.5,20.));
#414=CARTESIAN_POINT('',(52.5,10.,12.));
#415=CARTESIAN_POINT('',(52.5,10.,12.));
#416=CARTESIAN_POINT('',(52.5,7.,12.));
#417=CARTESIAN_POINT('',(52.5,10.,20.));
#418=CARTESIAN_POINT('',(52.5,10.,0.));
#419=CARTESIAN_POINT('',(52.5,13.,0.));
#420=CARTESIAN_POINT('',(7.5,10.,20.));
#421=CARTESIAN_POINT('',(7.5,10.,12.));
#422=CARTESIAN_POINT('',(7.5,15.5,12.));
#423=CARTESIAN_POINT('',(7.5,10.,20.));
#424=CARTESIAN_POINT('',(7.5,15.5,20.));
#425=CARTESIAN_POINT('',(7.5,10.,12.));
#426=CARTESIAN_POINT('',(7.5,10.,12.));
#427=CARTESIAN_POINT('',(7.5,7.,12.));
#428=CARTESIAN_POINT('',(7.5,10.,20.));
#429=CARTESIAN_POINT('',(60.,10.,0.));
#430=CARTESIAN_POINT('',(60.,20.,20.));
#431=CARTESIAN_POINT('',(60.,0.,20.));
#432=CARTESIAN_POINT('',(60.,0.,0.));
#433=CARTESIAN_POINT('',(60.,0.,0.));
#434=CARTESIAN_POINT('',(60.,20.,0.));
#435=CARTESIAN_POINT('',(30.,0.,0.));
#436=CARTESIAN_POINT('',(60.,0.,20.));
#437=CARTESIAN_POINT('',(0.,0.,20.));
#438=CARTESIAN_POINT('',(0.,0.,0.));
#439=CARTESIAN_POINT('',(0.,10.,0.));
#440=CARTESIAN_POINT('',(0.,0.,20.));
#441=CARTESIAN_POINT('',(30.,10.,20.));
#442=CYLINDRICAL_SURFACE('',#310,7.25);
#443=CYLINDRICAL_SURFACE('',#316,5.5);
#444=CYLINDRICAL_SURFACE('',#321,3.);
#445=CYLINDRICAL_SURFACE('',#323,5.5);
#446=CYLINDRICAL_SURFACE('',#328,3.);
#447=CLOSED_SHELL('',(#296,#297,#298,#299,#300,#301,#302,#303,#304,#305,
#306,#307,#308,#309));
#448=MANIFOLD_SOLID_BREP('',#447);
#449=ADVANCED_BREP_SHAPE_REPRESENTATION('',(#448),#103);
ENDSEC;
END-ISO-10303-21;
