ISO-10303-21;
HEADER;
FILE_DESCRIPTION (( 'STEP AP203' ),
    '1' );
FILE_NAME ('Bague PTFE.STEP',
    '2024-08-16T16:57:34',
    ( '' ),
    ( '' ),
    'SwSTEP 2.0',
    'SolidWorks 2020',
    '' );
FILE_SCHEMA (( 'CONFIG_CONTROL_DESIGN' ));
ENDSEC;

DATA;
#1 = ORIENTED_EDGE ( 'NONE', *, *, #106, .F. ) ;
#2 = PERSON_AND_ORGANIZATION_ROLE ( 'design_supplier' ) ;
#3 = FACE_OUTER_BOUND ( 'NONE', #71, .T. ) ;
#4 = COORDINATED_UNIVERSAL_TIME_OFFSET ( 1, 0, .AHEAD. ) ;
#5 = AXIS2_PLACEMENT_3D ( 'NONE', #250, #220, #50 ) ;
#6 = PERSON_AND_ORGANIZATION_ROLE ( 'design_owner' ) ;
#7 = EDGE_CURVE ( 'NONE', #76, #41, #49, .T. ) ;
#8 = APPROVAL_ROLE ( '' ) ;
#9 = VECTOR ( 'NONE', #33, 1000.000000000000000 ) ;
#10 = DIRECTION ( 'NONE',  ( -1.000000000000000000, 0.000000000000000000, 0.000000000000000000 ) ) ;
#11 = EDGE_CURVE ( 'NONE', #395, #328, #12, .T. ) ;
#12 = CIRCLE ( 'NONE', #245, 55.74999999999998579 ) ;
#13 = ORIENTED_EDGE ( 'NONE', *, *, #17, .T. ) ;
#14 = CARTESIAN_POINT ( 'NONE',  ( 0.000000000000000000, 0.000000000000000000, 0.7162572561723867803 ) ) ;
#15 = ORIENTED_EDGE ( 'NONE', *, *, #356, .T. ) ;
#16 = PRODUCT_DEFINITION ( 'UNKNOWN', '', #290, #70 ) ;
#17 = EDGE_CURVE ( 'NONE', #175, #376, #86, .T. ) ;
#18 = ORIENTED_EDGE ( 'NONE', *, *, #177, .T. ) ;
#19 = DIRECTION ( 'NONE',  ( -0.000000000000000000, -0.000000000000000000, -1.000000000000000000 ) ) ;
#20 = ORIENTED_EDGE ( 'NONE', *, *, #229, .F. ) ;
#21 = DIRECTION ( 'NONE',  ( -1.000000000000000000, 0.000000000000000000, 0.000000000000000000 ) ) ;
#22 = AXIS2_PLACEMENT_3D ( 'NONE', #93, #294, #138 ) ;
#23 = DIRECTION ( 'NONE',  ( -1.000000000000000000, 0.000000000000000000, 0.000000000000000000 ) ) ;
#24 = DIRECTION ( 'NONE',  ( 0.000000000000000000, 0.000000000000000000, 1.000000000000000000 ) ) ;
#25 = FACE_BOUND ( 'NONE', #207, .T. ) ;
#26 = LINE ( 'NONE', #278, #193 ) ;
#27 = DIRECTION ( 'NONE',  ( 0.000000000000000000, 0.000000000000000000, 1.000000000000000000 ) ) ;
#28 = AXIS2_PLACEMENT_3D ( 'NONE', #185, #124, #249 ) ;
#29 = DIRECTION ( 'NONE',  ( -0.000000000000000000, -0.000000000000000000, -1.000000000000000000 ) ) ;
#30 = DIRECTION ( 'NONE',  ( -1.000000000000000000, 0.000000000000000000, 0.000000000000000000 ) ) ;
#31 = EDGE_CURVE ( 'NONE', #268, #391, #225, .T. ) ;
#32 = APPROVAL_DATE_TIME ( #352, #224 ) ;
#33 = DIRECTION ( 'NONE',  ( -0.000000000000000000, -0.000000000000000000, -1.000000000000000000 ) ) ;
#34 = CALENDAR_DATE ( 2024, 16, 8 ) ;
#35 = PERSON_AND_ORGANIZATION ( #94, #366 ) ;
#36 = VECTOR ( 'NONE', #29, 1000.000000000000000 ) ;
#37 = PERSON_AND_ORGANIZATION_ROLE ( 'creator' ) ;
#38 = CIRCLE ( 'NONE', #387, 55.74999999999998579 ) ;
#39 = ORIENTED_EDGE ( 'NONE', *, *, #209, .F. ) ;
#40 = VERTEX_POINT ( 'NONE', #287 ) ;
#41 = VERTEX_POINT ( 'NONE', #130 ) ;
#42 = EDGE_CURVE ( 'NONE', #268, #76, #332, .T. ) ;
#43 = LOCAL_TIME ( 18, 57, 34.00000000000000000, #4 ) ;
#44 = ORIENTED_EDGE ( 'NONE', *, *, #342, .F. ) ;
#45 = EDGE_LOOP ( 'NONE', ( #298, #74, #200, #1 ) ) ;
#46 = ORIENTED_EDGE ( 'NONE', *, *, #7, .F. ) ;
#47 = DIRECTION ( 'NONE',  ( -0.000000000000000000, -0.000000000000000000, -1.000000000000000000 ) ) ;
#48 = CYLINDRICAL_SURFACE ( 'NONE', #321, 53.75000000000000000 ) ;
#49 = LINE ( 'NONE', #282, #280 ) ;
#50 = DIRECTION ( 'NONE',  ( -1.000000000000000000, 0.000000000000000000, 0.000000000000000000 ) ) ;
#51 = CIRCLE ( 'NONE', #163, 55.74999999999998579 ) ;
#52 = CARTESIAN_POINT ( 'NONE',  ( -57.00000000000000000, 0.000000000000000000, 3.316257256172377765 ) ) ;
#53 = CIRCLE ( 'NONE', #397, 53.75000000000000000 ) ;
#54 = FACE_OUTER_BOUND ( 'NONE', #230, .T. ) ;
#55 = DIRECTION ( 'NONE',  ( -0.000000000000000000, -0.000000000000000000, -1.000000000000000000 ) ) ;
#56 = ORIENTED_EDGE ( 'NONE', *, *, #394, .F. ) ;
#57 = AXIS2_PLACEMENT_3D ( 'NONE', #389, #365, #108 ) ;
#58 = CARTESIAN_POINT ( 'NONE',  ( 0.000000000000000000, 0.000000000000000000, 3.316257256172377765 ) ) ;
#59 = CYLINDRICAL_SURFACE ( 'NONE', #158, 55.74999999999998579 ) ;
#60 = ADVANCED_FACE ( 'NONE', ( #153, #335 ), #182, .T. ) ;
#61 = DIRECTION ( 'NONE',  ( -0.000000000000000000, -0.000000000000000000, -1.000000000000000000 ) ) ;
#62 = CC_DESIGN_PERSON_AND_ORGANIZATION_ASSIGNMENT ( #379, #6, ( #319 ) ) ;
#63 = CARTESIAN_POINT ( 'NONE',  ( -55.74999999999998579, 0.000000000000000000, -89.20212765957447232 ) ) ;
#64 = DIRECTION ( 'NONE',  ( -0.000000000000000000, -0.000000000000000000, -1.000000000000000000 ) ) ;
#65 = DATE_AND_TIME ( #34, #136 ) ;
#66 = PERSON_AND_ORGANIZATION ( #94, #366 ) ;
#67 = VECTOR ( 'NONE', #369, 1000.000000000000000 ) ;
#68 = CALENDAR_DATE ( 2024, 16, 8 ) ;
#69 = LOCAL_TIME ( 18, 57, 34.00000000000000000, #131 ) ;
#70 = DESIGN_CONTEXT ( 'detailed design', #192, 'design' ) ;
#71 = EDGE_LOOP ( 'NONE', ( #56, #330, #75, #178 ) ) ;
#72 = CIRCLE ( 'NONE', #293, 57.00000000000000000 ) ;
#73 = CARTESIAN_POINT ( 'NONE',  ( 55.74999999999998579, 6.827405905246493187E-15, 3.316257256172377765 ) ) ;
#74 = ORIENTED_EDGE ( 'NONE', *, *, #102, .T. ) ;
#75 = ORIENTED_EDGE ( 'NONE', *, *, #209, .T. ) ;
#76 = VERTEX_POINT ( 'NONE', #52 ) ;
#77 = ORIENTED_EDGE ( 'NONE', *, *, #198, .F. ) ;
#78 = CARTESIAN_POINT ( 'NONE',  ( 53.75000000000000000, 6.582476545417023680E-15, 0.7162572561723867803 ) ) ;
#79 = AXIS2_PLACEMENT_3D ( 'NONE', #232, #170, #10 ) ;
#80 = ORIENTED_EDGE ( 'NONE', *, *, #166, .F. ) ;
#81 = EDGE_LOOP ( 'NONE', ( #205, #39 ) ) ;
#82 = DIRECTION ( 'NONE',  ( -0.000000000000000000, -0.000000000000000000, -1.000000000000000000 ) ) ;
#83 = ADVANCED_FACE ( 'NONE', ( #246, #216 ), #339, .T. ) ;
#84 = CLOSED_SHELL ( 'NONE', ( #101, #275, #135, #253, #254, #381, #392, #367, #60, #286, #83, #322 ) ) ;
#85 = LINE ( 'NONE', #214, #310 ) ;
#86 = LINE ( 'NONE', #63, #67 ) ;
#87 = MECHANICAL_CONTEXT ( 'NONE', #256, 'mechanical' ) ;
#88 = CC_DESIGN_APPROVAL ( #92, ( #156 ) ) ;
#89 = DIRECTION ( 'NONE',  ( -1.000000000000000000, 0.000000000000000000, 0.000000000000000000 ) ) ;
#90 = FACE_OUTER_BOUND ( 'NONE', #105, .T. ) ;
#91 = CYLINDRICAL_SURFACE ( 'NONE', #265, 55.74999999999998579 ) ;
#92 = APPROVAL ( #195, 'UNSPECIFIED' ) ;
#93 = CARTESIAN_POINT ( 'NONE',  ( 0.000000000000000000, 0.000000000000000000, -89.20212765957447232 ) ) ;
#94 = PERSON ( 'UNSPECIFIED', 'UNSPECIFIED', 'UNSPECIFIED', ('UNSPECIFIED'), ('UNSPECIFIED'), ('UNSPECIFIED') ) ;
#95 = LINE ( 'NONE', #284, #9 ) ;
#96 = MANIFOLD_SOLID_BREP ( 'Revolve1', #84 ) ;
#97 = PERSON_AND_ORGANIZATION ( #94, #366 ) ;
#98 = CIRCLE ( 'NONE', #258, 55.74999999999998579 ) ;
#99 = COORDINATED_UNIVERSAL_TIME_OFFSET ( 1, 0, .AHEAD. ) ;
#100 = CALENDAR_DATE ( 2024, 16, 8 ) ;
#101 = ADVANCED_FACE ( 'NONE', ( #90 ), #219, .F. ) ;
#102 = EDGE_CURVE ( 'NONE', #208, #269, #85, .T. ) ;
#103 = CARTESIAN_POINT ( 'NONE',  ( 0.000000000000000000, 0.000000000000000000, -13.58374274382762081 ) ) ;
#104 = CIRCLE ( 'NONE', #57, 57.00000000000000000 ) ;
#105 = EDGE_LOOP ( 'NONE', ( #263, #361, #359, #333 ) ) ;
#106 = EDGE_CURVE ( 'NONE', #40, #313, #95, .T. ) ;
#107 = EDGE_LOOP ( 'NONE', ( #347, #316 ) ) ;
#108 = DIRECTION ( 'NONE',  ( -1.000000000000000000, 0.000000000000000000, 0.000000000000000000 ) ) ;
#109 = AXIS2_PLACEMENT_3D ( 'NONE', #14, #201, #327 ) ;
#110 = ORIENTED_EDGE ( 'NONE', *, *, #42, .T. ) ;
#111 = DIRECTION ( 'NONE',  ( -1.000000000000000000, 0.000000000000000000, 0.000000000000000000 ) ) ;
#112 = ORIENTED_EDGE ( 'NONE', *, *, #262, .F. ) ;
#113 = CARTESIAN_POINT ( 'NONE',  ( 55.74999999999998579, 6.827405905246493187E-15, -89.20212765957447232 ) ) ;
#114 = CC_DESIGN_DATE_AND_TIME_ASSIGNMENT ( #228, #257, ( #156 ) ) ;
#115 = FACE_OUTER_BOUND ( 'NONE', #364, .T. ) ;
#116 = DIRECTION ( 'NONE',  ( -1.000000000000000000, 0.000000000000000000, 0.000000000000000000 ) ) ;
#117 = CARTESIAN_POINT ( 'NONE',  ( 0.000000000000000000, 0.000000000000000000, 3.316257256172377765 ) ) ;
#118 = DIRECTION ( 'NONE',  ( -1.000000000000000000, 0.000000000000000000, 0.000000000000000000 ) ) ;
#119 = DIRECTION ( 'NONE',  ( 1.000000000000000000, 0.000000000000000000, -0.000000000000000000 ) ) ;
#120 = VECTOR ( 'NONE', #405, 1000.000000000000000 ) ;
#121 = DIRECTION ( 'NONE',  ( -0.000000000000000000, -0.000000000000000000, -1.000000000000000000 ) ) ;
#122 = CARTESIAN_POINT ( 'NONE',  ( -57.00000000000000000, 0.000000000000000000, 3.316257256172384871 ) ) ;
#123 = DIRECTION ( 'NONE',  ( -0.000000000000000000, -0.000000000000000000, -1.000000000000000000 ) ) ;
#124 = DIRECTION ( 'NONE',  ( -0.000000000000000000, 0.000000000000000000, -1.000000000000000000 ) ) ;
#125 = DIRECTION ( 'NONE',  ( -0.000000000000000000, -0.000000000000000000, -1.000000000000000000 ) ) ;
#126 = CIRCLE ( 'NONE', #5, 53.75000000000000000 ) ;
#127 = DIRECTION ( 'NONE',  ( -0.000000000000000000, -0.000000000000000000, -1.000000000000000000 ) ) ;
#128 = EDGE_LOOP ( 'NONE', ( #18, #363 ) ) ;
#129 = FACE_OUTER_BOUND ( 'NONE', #235, .T. ) ;
#130 = CARTESIAN_POINT ( 'NONE',  ( -57.00000000000000000, 0.000000000000000000, -13.58374274382762081 ) ) ;
#131 = COORDINATED_UNIVERSAL_TIME_OFFSET ( 1, 0, .AHEAD. ) ;
#132 = SHAPE_DEFINITION_REPRESENTATION ( #197, #386 ) ;
#133 = APPROVAL_STATUS ( 'not_yet_approved' ) ;
#134 = PERSON_AND_ORGANIZATION ( #94, #366 ) ;
#135 = ADVANCED_FACE ( 'NONE', ( #3 ), #59, .F. ) ;
#136 = LOCAL_TIME ( 18, 57, 34.00000000000000000, #99 ) ;
#137 = CC_DESIGN_APPROVAL ( #224, ( #290 ) ) ;
#138 = DIRECTION ( 'NONE',  ( -1.000000000000000000, 0.000000000000000000, 0.000000000000000000 ) ) ;
#139 = EDGE_LOOP ( 'NONE', ( #393, #239 ) ) ;
#140 = ORIENTED_EDGE ( 'NONE', *, *, #302, .T. ) ;
#141 = CARTESIAN_POINT ( 'NONE',  ( -55.74999999999998579, 0.000000000000000000, 3.316257256172377765 ) ) ;
#142 = ORIENTED_EDGE ( 'NONE', *, *, #295, .F. ) ;
#143 = ORIENTED_EDGE ( 'NONE', *, *, #323, .F. ) ;
#144 = DIRECTION ( 'NONE',  ( -0.000000000000000000, -0.000000000000000000, -1.000000000000000000 ) ) ;
#145 = CIRCLE ( 'NONE', #292, 53.75000000000000000 ) ;
#146 = ORIENTED_EDGE ( 'NONE', *, *, #202, .T. ) ;
#147 = PLANE ( 'NONE',  #329 ) ;
#148 = CC_DESIGN_PERSON_AND_ORGANIZATION_ASSIGNMENT ( #66, #353, ( #156 ) ) ;
#149 = AXIS2_PLACEMENT_3D ( 'NONE', #58, #317, #213 ) ;
#150 = CARTESIAN_POINT ( 'NONE',  ( 55.74999999999998579, 6.827405905246493187E-15, 0.7162572561723867803 ) ) ;
#151 = AXIS2_PLACEMENT_3D ( 'NONE', #184, #152, #89 ) ;
#152 = DIRECTION ( 'NONE',  ( -0.000000000000000000, 0.000000000000000000, -1.000000000000000000 ) ) ;
#153 = FACE_BOUND ( 'NONE', #236, .T. ) ;
#154 = DIRECTION ( 'NONE',  ( -0.000000000000000000, -0.000000000000000000, -1.000000000000000000 ) ) ;
#155 = DIRECTION ( 'NONE',  ( 0.000000000000000000, 0.000000000000000000, 1.000000000000000000 ) ) ;
#156 = SECURITY_CLASSIFICATION ( '', '', #161 ) ;
#157 = PERSON_AND_ORGANIZATION_ROLE ( 'creator' ) ;
#158 = AXIS2_PLACEMENT_3D ( 'NONE', #176, #19, #111 ) ;
#159 = DATE_AND_TIME ( #165, #43 ) ;
#160 = EDGE_CURVE ( 'NONE', #391, #41, #104, .T. ) ;
#161 = SECURITY_CLASSIFICATION_LEVEL ( 'unclassified' ) ;
#162 = AXIS2_PLACEMENT_3D ( 'NONE', #117, #247, #191 ) ;
#163 = AXIS2_PLACEMENT_3D ( 'NONE', #276, #61, #118 ) ;
#164 = CIRCLE ( 'NONE', #109, 53.75000000000000000 ) ;
#165 = CALENDAR_DATE ( 2024, 16, 8 ) ;
#166 = EDGE_CURVE ( 'NONE', #408, #390, #168, .T. ) ;
#167 = APPROVAL ( #350, 'UNSPECIFIED' ) ;
#168 = CIRCLE ( 'NONE', #221, 55.74999999999998579 ) ;
#169 = CIRCLE ( 'NONE', #79, 55.74999999999998579 ) ;
#170 = DIRECTION ( 'NONE',  ( -0.000000000000000000, -0.000000000000000000, -1.000000000000000000 ) ) ;
#171 = EDGE_LOOP ( 'NONE', ( #277, #272, #401, #344 ) ) ;
#172 = UNCERTAINTY_MEASURE_WITH_UNIT (LENGTH_MEASURE( 1.000000000000000082E-05 ), #396, 'distance_accuracy_value', 'NONE');
#173 = ORIENTED_EDGE ( 'NONE', *, *, #7, .T. ) ;
#174 = ORIENTED_EDGE ( 'NONE', *, *, #160, .F. ) ;
#175 = VERTEX_POINT ( 'NONE', #141 ) ;
#176 = CARTESIAN_POINT ( 'NONE',  ( 0.000000000000000000, 0.000000000000000000, -89.20212765957447232 ) ) ;
#177 = EDGE_CURVE ( 'NONE', #175, #203, #169, .T. ) ;
#178 = ORIENTED_EDGE ( 'NONE', *, *, #17, .F. ) ;
#179 = CARTESIAN_POINT ( 'NONE',  ( 57.00000000000000000, 6.980486755139912911E-15, 3.316257256172377765 ) ) ;
#180 = CARTESIAN_POINT ( 'NONE',  ( 0.000000000000000000, 0.000000000000000000, -89.20212765957447232 ) ) ;
#181 = FACE_OUTER_BOUND ( 'NONE', #171, .T. ) ;
#182 = PLANE ( 'NONE',  #206 ) ;
#183 = DIRECTION ( 'NONE',  ( -1.000000000000000000, 0.000000000000000000, 0.000000000000000000 ) ) ;
#184 = CARTESIAN_POINT ( 'NONE',  ( -55.74999999999998579, 0.000000000000000000, -13.58374274382761371 ) ) ;
#185 = CARTESIAN_POINT ( 'NONE',  ( -53.75000000000000000, 0.000000000000000000, -10.28374274382761300 ) ) ;
#186 = CARTESIAN_POINT ( 'NONE',  ( -53.75000000000000000, 0.000000000000000000, -10.28374274382760944 ) ) ;
#187 = CARTESIAN_POINT ( 'NONE',  ( 57.00000000000000000, 6.980486755139912911E-15, -13.58374274382762081 ) ) ;
#188 = DIRECTION ( 'NONE',  ( -1.000000000000000000, 0.000000000000000000, 0.000000000000000000 ) ) ;
#189 = LINE ( 'NONE', #372, #248 ) ;
#190 = DIRECTION ( 'NONE',  ( -0.000000000000000000, -0.000000000000000000, -1.000000000000000000 ) ) ;
#191 = DIRECTION ( 'NONE',  ( -1.000000000000000000, 0.000000000000000000, 0.000000000000000000 ) ) ;
#192 = APPLICATION_CONTEXT ( 'configuration controlled 3d designs of mechanical parts and assemblies' ) ;
#193 = VECTOR ( 'NONE', #340, 1000.000000000000000 ) ;
#194 = CC_DESIGN_DATE_AND_TIME_ASSIGNMENT ( #65, #288, ( #16 ) ) ;
#195 = APPROVAL_STATUS ( 'not_yet_approved' ) ;
#196 = APPROVAL_ROLE ( '' ) ;
#197 = PRODUCT_DEFINITION_SHAPE ( 'NONE', 'NONE',  #16 ) ;
#198 = EDGE_CURVE ( 'NONE', #313, #269, #53, .T. ) ;
#199 = APPROVAL_PERSON_ORGANIZATION ( #97, #92, #291 ) ;
#200 = ORIENTED_EDGE ( 'NONE', *, *, #323, .T. ) ;
#201 = DIRECTION ( 'NONE',  ( -0.000000000000000000, -0.000000000000000000, -1.000000000000000000 ) ) ;
#202 = EDGE_CURVE ( 'NONE', #208, #40, #164, .T. ) ;
#203 = VERTEX_POINT ( 'NONE', #73 ) ;
#204 = CARTESIAN_POINT ( 'NONE',  ( 0.000000000000000000, 0.000000000000000000, -10.28374274382760944 ) ) ;
#205 = ORIENTED_EDGE ( 'NONE', *, *, #356, .F. ) ;
#206 = AXIS2_PLACEMENT_3D ( 'NONE', #304, #24, #119 ) ;
#207 = EDGE_LOOP ( 'NONE', ( #20, #80 ) ) ;
#208 = VERTEX_POINT ( 'NONE', #78 ) ;
#209 = EDGE_CURVE ( 'NONE', #331, #376, #98, .T. ) ;
#210 = FACE_OUTER_BOUND ( 'NONE', #251, .T. ) ;
#211 = CARTESIAN_POINT ( 'NONE',  ( 57.00000000000000000, 6.980486755139912911E-15, -89.20212765957447232 ) ) ;
#212 = CARTESIAN_POINT ( 'NONE',  ( 0.000000000000000000, 0.000000000000000000, -89.20212765957447232 ) ) ;
#213 = DIRECTION ( 'NONE',  ( -1.000000000000000000, 0.000000000000000000, 0.000000000000000000 ) ) ;
#214 = CARTESIAN_POINT ( 'NONE',  ( 53.75000000000000000, 6.582476545417023680E-15, -89.20212765957447232 ) ) ;
#215 = AXIS2_PLACEMENT_3D ( 'NONE', #279, #27, #403 ) ;
#216 = FACE_BOUND ( 'NONE', #270, .T. ) ;
#217 = DIRECTION ( 'NONE',  ( -1.000000000000000000, 0.000000000000000000, 0.000000000000000000 ) ) ;
#218 = DIRECTION ( 'NONE',  ( -0.000000000000000000, -0.000000000000000000, -1.000000000000000000 ) ) ;
#219 = CYLINDRICAL_SURFACE ( 'NONE', #362, 55.74999999999998579 ) ;
#220 = DIRECTION ( 'NONE',  ( -0.000000000000000000, -0.000000000000000000, -1.000000000000000000 ) ) ;
#221 = AXIS2_PLACEMENT_3D ( 'NONE', #103, #144, #264 ) ;
#222 = CARTESIAN_POINT ( 'NONE',  ( 0.000000000000000000, 0.000000000000000000, -10.28374274382760944 ) ) ;
#223 = CARTESIAN_POINT ( 'NONE',  ( -55.74999999999998579, 0.000000000000000000, -13.58374274382762081 ) ) ;
#224 = APPROVAL ( #133, 'UNSPECIFIED' ) ;
#225 = LINE ( 'NONE', #211, #120 ) ;
#226 = APPROVAL_DATE_TIME ( #260, #167 ) ;
#227 = PERSON_AND_ORGANIZATION ( #94, #366 ) ;
#228 = DATE_AND_TIME ( #318, #69 ) ;
#229 = EDGE_CURVE ( 'NONE', #390, #408, #325, .T. ) ;
#230 = EDGE_LOOP ( 'NONE', ( #368, #300, #13, #15 ) ) ;
#231 = CC_DESIGN_SECURITY_CLASSIFICATION ( #156, ( #290 ) ) ;
#232 = CARTESIAN_POINT ( 'NONE',  ( 0.000000000000000000, 0.000000000000000000, 3.316257256172377765 ) ) ;
#233 = ORIENTED_EDGE ( 'NONE', *, *, #31, .T. ) ;
#234 = CC_DESIGN_PERSON_AND_ORGANIZATION_ASSIGNMENT ( #35, #2, ( #290 ) ) ;
#235 = EDGE_LOOP ( 'NONE', ( #44, #299 ) ) ;
#236 = EDGE_LOOP ( 'NONE', ( #358, #146 ) ) ;
#237 = ORIENTED_EDGE ( 'NONE', *, *, #351, .F. ) ;
#238 = DIRECTION ( 'NONE',  ( -1.000000000000000000, 0.000000000000000000, 0.000000000000000000 ) ) ;
#239 = ORIENTED_EDGE ( 'NONE', *, *, #160, .T. ) ;
#240 = AXIS2_PLACEMENT_3D ( 'NONE', #303, #375, #23 ) ;
#241 = CARTESIAN_POINT ( 'NONE',  ( 53.75000000000000000, 6.582476545417023680E-15, -10.28374274382760944 ) ) ;
#242 = CYLINDRICAL_SURFACE ( 'NONE', #22, 55.74999999999998579 ) ;
#243 = FACE_OUTER_BOUND ( 'NONE', #266, .T. ) ;
#244 = CARTESIAN_POINT ( 'NONE',  ( 0.000000000000000000, 0.000000000000000000, -89.20212765957447232 ) ) ;
#245 = AXIS2_PLACEMENT_3D ( 'NONE', #222, #82, #30 ) ;
#246 = FACE_OUTER_BOUND ( 'NONE', #107, .T. ) ;
#247 = DIRECTION ( 'NONE',  ( -0.000000000000000000, -0.000000000000000000, -1.000000000000000000 ) ) ;
#248 = VECTOR ( 'NONE', #336, 1000.000000000000000 ) ;
#249 = DIRECTION ( 'NONE',  ( -1.000000000000000000, 0.000000000000000000, 0.000000000000000000 ) ) ;
#250 = CARTESIAN_POINT ( 'NONE',  ( 0.000000000000000000, 0.000000000000000000, -10.28374274382760944 ) ) ;
#251 = EDGE_LOOP ( 'NONE', ( #297, #110, #173, #174 ) ) ;
#252 = CYLINDRICAL_SURFACE ( 'NONE', #407, 57.00000000000000000 ) ;
#253 = ADVANCED_FACE ( 'NONE', ( #243 ), #370, .T. ) ;
#254 = ADVANCED_FACE ( 'NONE', ( #338, #25 ), #346, .T. ) ;
#255 = DIRECTION ( 'NONE',  ( -0.000000000000000000, -0.000000000000000000, -1.000000000000000000 ) ) ;
#256 = APPLICATION_CONTEXT ( 'configuration controlled 3d designs of mechanical parts and assemblies' ) ;
#257 = DATE_TIME_ROLE ( 'classification_date' ) ;
#258 = AXIS2_PLACEMENT_3D ( 'NONE', #267, #399, #217 ) ;
#259 = COORDINATED_UNIVERSAL_TIME_OFFSET ( 1, 0, .AHEAD. ) ;
#260 = DATE_AND_TIME ( #100, #373 ) ;
#261 = CC_DESIGN_APPROVAL ( #167, ( #16 ) ) ;
#262 = EDGE_CURVE ( 'NONE', #41, #391, #72, .T. ) ;
#263 = ORIENTED_EDGE ( 'NONE', *, *, #11, .F. ) ;
#264 = DIRECTION ( 'NONE',  ( -1.000000000000000000, 0.000000000000000000, 0.000000000000000000 ) ) ;
#265 = AXIS2_PLACEMENT_3D ( 'NONE', #400, #154, #183 ) ;
#266 = EDGE_LOOP ( 'NONE', ( #388, #233, #112, #46 ) ) ;
#267 = CARTESIAN_POINT ( 'NONE',  ( 0.000000000000000000, 0.000000000000000000, 0.7162572561723867803 ) ) ;
#268 = VERTEX_POINT ( 'NONE', #179 ) ;
#269 = VERTEX_POINT ( 'NONE', #241 ) ;
#270 = EDGE_LOOP ( 'NONE', ( #77, #143 ) ) ;
#271 = CARTESIAN_POINT ( 'NONE',  ( 55.74999999999998579, 6.827405905246493187E-15, -10.28374274382760944 ) ) ;
#272 = ORIENTED_EDGE ( 'NONE', *, *, #309, .F. ) ;
#273 = CIRCLE ( 'NONE', #162, 55.74999999999998579 ) ;
#274 = LINE ( 'NONE', #113, #36 ) ;
#275 = ADVANCED_FACE ( 'NONE', ( #404 ), #48, .F. ) ;
#276 = CARTESIAN_POINT ( 'NONE',  ( 0.000000000000000000, 0.000000000000000000, -10.28374274382760944 ) ) ;
#277 = ORIENTED_EDGE ( 'NONE', *, *, #102, .F. ) ;
#278 = CARTESIAN_POINT ( 'NONE',  ( -55.74999999999998579, 0.000000000000000000, -89.20212765957447232 ) ) ;
#279 = CARTESIAN_POINT ( 'NONE',  ( 0.000000000000000000, 0.000000000000000000, 0.000000000000000000 ) ) ;
#280 = VECTOR ( 'NONE', #190, 1000.000000000000000 ) ;
#281 = CARTESIAN_POINT ( 'NONE',  ( 0.000000000000000000, 0.000000000000000000, -13.58374274382762081 ) ) ;
#282 = CARTESIAN_POINT ( 'NONE',  ( -57.00000000000000000, 0.000000000000000000, -89.20212765957447232 ) ) ;
#283 = CARTESIAN_POINT ( 'NONE',  ( -55.74999999999998579, 0.000000000000000000, 0.7162572561723867803 ) ) ;
#284 = CARTESIAN_POINT ( 'NONE',  ( -53.75000000000000000, 0.000000000000000000, -89.20212765957447232 ) ) ;
#285 = PRODUCT_RELATED_PRODUCT_CATEGORY ( 'detail', '', ( #319 ) ) ;
#286 = ADVANCED_FACE ( 'NONE', ( #181 ), #311, .F. ) ;
#287 = CARTESIAN_POINT ( 'NONE',  ( -53.75000000000000000, 0.000000000000000000, 0.7162572561723867803 ) ) ;
#288 = DATE_TIME_ROLE ( 'creation_date' ) ;
#289 = APPROVAL_DATE_TIME ( #159, #92 ) ;
#290 = PRODUCT_DEFINITION_FORMATION_WITH_SPECIFIED_SOURCE ( 'ANY', '', #319, .NOT_KNOWN. ) ;
#291 = APPROVAL_ROLE ( '' ) ;
#292 = AXIS2_PLACEMENT_3D ( 'NONE', #398, #402, #21 ) ;
#293 = AXIS2_PLACEMENT_3D ( 'NONE', #281, #218, #315 ) ;
#294 = DIRECTION ( 'NONE',  ( -0.000000000000000000, -0.000000000000000000, -1.000000000000000000 ) ) ;
#295 = EDGE_CURVE ( 'NONE', #328, #395, #51, .T. ) ;
#296 = AXIS2_PLACEMENT_3D ( 'NONE', #307, #255, #378 ) ;
#297 = ORIENTED_EDGE ( 'NONE', *, *, #31, .F. ) ;
#298 = ORIENTED_EDGE ( 'NONE', *, *, #202, .F. ) ;
#299 = ORIENTED_EDGE ( 'NONE', *, *, #42, .F. ) ;
#300 = ORIENTED_EDGE ( 'NONE', *, *, #177, .F. ) ;
#301 = DIRECTION ( 'NONE',  ( 1.000000000000000000, 0.000000000000000000, -0.000000000000000000 ) ) ;
#302 = EDGE_CURVE ( 'NONE', #328, #390, #26, .T. ) ;
#303 = CARTESIAN_POINT ( 'NONE',  ( 0.000000000000000000, 0.000000000000000000, -89.20212765957447232 ) ) ;
#304 = CARTESIAN_POINT ( 'NONE',  ( -55.74999999999998579, 0.000000000000000000, 0.7162572561723867803 ) ) ;
#305 = APPLICATION_PROTOCOL_DEFINITION ( 'international standard', 'config_control_design', 1994, #256 ) ;
#306 = AXIS2_PLACEMENT_3D ( 'NONE', #341, #47, #116 ) ;
#307 = CARTESIAN_POINT ( 'NONE',  ( 0.000000000000000000, 0.000000000000000000, 3.316257256172377765 ) ) ;
#308 =( NAMED_UNIT ( * ) SI_UNIT ( $, .STERADIAN. ) SOLID_ANGLE_UNIT ( ) );
#309 = EDGE_CURVE ( 'NONE', #40, #208, #145, .T. ) ;
#310 = VECTOR ( 'NONE', #55, 1000.000000000000000 ) ;
#311 = CYLINDRICAL_SURFACE ( 'NONE', #240, 53.75000000000000000 ) ;
#312 = CC_DESIGN_PERSON_AND_ORGANIZATION_ASSIGNMENT ( #355, #37, ( #16 ) ) ;
#313 = VERTEX_POINT ( 'NONE', #186 ) ;
#314 = DIRECTION ( 'NONE',  ( -1.000000000000000000, 0.000000000000000000, 0.000000000000000000 ) ) ;
#315 = DIRECTION ( 'NONE',  ( -1.000000000000000000, 0.000000000000000000, 0.000000000000000000 ) ) ;
#316 = ORIENTED_EDGE ( 'NONE', *, *, #11, .T. ) ;
#317 = DIRECTION ( 'NONE',  ( -0.000000000000000000, -0.000000000000000000, -1.000000000000000000 ) ) ;
#318 = CALENDAR_DATE ( 2024, 16, 8 ) ;
#319 = PRODUCT ( 'Bague PTFE', 'Bague PTFE', '', ( #87 ) ) ;
#320 = COORDINATED_UNIVERSAL_TIME_OFFSET ( 1, 0, .AHEAD. ) ;
#321 = AXIS2_PLACEMENT_3D ( 'NONE', #343, #127, #188 ) ;
#322 = ADVANCED_FACE ( 'NONE', ( #115 ), #242, .F. ) ;
#323 = EDGE_CURVE ( 'NONE', #269, #313, #126, .T. ) ;
#324 = APPROVAL_PERSON_ORGANIZATION ( #227, #224, #196 ) ;
#325 = CIRCLE ( 'NONE', #306, 55.74999999999998579 ) ;
#326 = ORIENTED_EDGE ( 'NONE', *, *, #229, .T. ) ;
#327 = DIRECTION ( 'NONE',  ( -1.000000000000000000, 0.000000000000000000, 0.000000000000000000 ) ) ;
#328 = VERTEX_POINT ( 'NONE', #348 ) ;
#329 = AXIS2_PLACEMENT_3D ( 'NONE', #122, #155, #301 ) ;
#330 = ORIENTED_EDGE ( 'NONE', *, *, #385, .T. ) ;
#331 = VERTEX_POINT ( 'NONE', #150 ) ;
#332 = CIRCLE ( 'NONE', #296, 57.00000000000000000 ) ;
#333 = ORIENTED_EDGE ( 'NONE', *, *, #302, .F. ) ;
#334 = DIRECTION ( 'NONE',  ( -1.000000000000000000, 0.000000000000000000, 0.000000000000000000 ) ) ;
#335 = FACE_OUTER_BOUND ( 'NONE', #81, .T. ) ;
#336 = DIRECTION ( 'NONE',  ( -0.000000000000000000, -0.000000000000000000, -1.000000000000000000 ) ) ;
#337 = CIRCLE ( 'NONE', #149, 57.00000000000000000 ) ;
#338 = FACE_OUTER_BOUND ( 'NONE', #139, .T. ) ;
#339 = PLANE ( 'NONE',  #28 ) ;
#340 = DIRECTION ( 'NONE',  ( -0.000000000000000000, -0.000000000000000000, -1.000000000000000000 ) ) ;
#341 = CARTESIAN_POINT ( 'NONE',  ( 0.000000000000000000, 0.000000000000000000, -13.58374274382762081 ) ) ;
#342 = EDGE_CURVE ( 'NONE', #76, #268, #337, .T. ) ;
#343 = CARTESIAN_POINT ( 'NONE',  ( 0.000000000000000000, 0.000000000000000000, -89.20212765957447232 ) ) ;
#344 = ORIENTED_EDGE ( 'NONE', *, *, #198, .T. ) ;
#345 = CARTESIAN_POINT ( 'NONE',  ( 0.000000000000000000, 0.000000000000000000, 0.7162572561723867803 ) ) ;
#346 = PLANE ( 'NONE',  #151 ) ;
#347 = ORIENTED_EDGE ( 'NONE', *, *, #295, .T. ) ;
#348 = CARTESIAN_POINT ( 'NONE',  ( -55.74999999999998579, 0.000000000000000000, -10.28374274382760944 ) ) ;
#349 = DIRECTION ( 'NONE',  ( -1.000000000000000000, 0.000000000000000000, 0.000000000000000000 ) ) ;
#350 = APPROVAL_STATUS ( 'not_yet_approved' ) ;
#351 = EDGE_CURVE ( 'NONE', #395, #408, #274, .T. ) ;
#352 = DATE_AND_TIME ( #68, #380 ) ;
#353 = PERSON_AND_ORGANIZATION_ROLE ( 'classification_officer' ) ;
#354 =( GEOMETRIC_REPRESENTATION_CONTEXT ( 3 ) GLOBAL_UNCERTAINTY_ASSIGNED_CONTEXT ( ( #172 ) ) GLOBAL_UNIT_ASSIGNED_CONTEXT ( ( #396, #377, #308 ) ) REPRESENTATION_CONTEXT ( 'NONE', 'WORKASPACE' ) );
#355 = PERSON_AND_ORGANIZATION ( #94, #366 ) ;
#356 = EDGE_CURVE ( 'NONE', #376, #331, #38, .T. ) ;
#357 = APPROVAL_PERSON_ORGANIZATION ( #134, #167, #8 ) ;
#358 = ORIENTED_EDGE ( 'NONE', *, *, #309, .T. ) ;
#359 = ORIENTED_EDGE ( 'NONE', *, *, #166, .T. ) ;
#360 = DIRECTION ( 'NONE',  ( -0.000000000000000000, -0.000000000000000000, -1.000000000000000000 ) ) ;
#361 = ORIENTED_EDGE ( 'NONE', *, *, #351, .T. ) ;
#362 = AXIS2_PLACEMENT_3D ( 'NONE', #244, #123, #349 ) ;
#363 = ORIENTED_EDGE ( 'NONE', *, *, #394, .T. ) ;
#364 = EDGE_LOOP ( 'NONE', ( #237, #142, #140, #326 ) ) ;
#365 = DIRECTION ( 'NONE',  ( -0.000000000000000000, -0.000000000000000000, -1.000000000000000000 ) ) ;
#366 = ORGANIZATION ( 'UNSPECIFIED', 'UNSPECIFIED', '' ) ;
#367 = ADVANCED_FACE ( 'NONE', ( #54 ), #91, .F. ) ;
#368 = ORIENTED_EDGE ( 'NONE', *, *, #385, .F. ) ;
#369 = DIRECTION ( 'NONE',  ( -0.000000000000000000, -0.000000000000000000, -1.000000000000000000 ) ) ;
#370 = CYLINDRICAL_SURFACE ( 'NONE', #382, 57.00000000000000000 ) ;
#371 = CC_DESIGN_PERSON_AND_ORGANIZATION_ASSIGNMENT ( #383, #157, ( #290 ) ) ;
#372 = CARTESIAN_POINT ( 'NONE',  ( 55.74999999999998579, 6.827405905246493187E-15, -89.20212765957447232 ) ) ;
#373 = LOCAL_TIME ( 18, 57, 34.00000000000000000, #259 ) ;
#374 = DIRECTION ( 'NONE',  ( -1.000000000000000000, 0.000000000000000000, 0.000000000000000000 ) ) ;
#375 = DIRECTION ( 'NONE',  ( -0.000000000000000000, -0.000000000000000000, -1.000000000000000000 ) ) ;
#376 = VERTEX_POINT ( 'NONE', #283 ) ;
#377 =( NAMED_UNIT ( * ) PLANE_ANGLE_UNIT ( ) SI_UNIT ( $, .RADIAN. ) );
#378 = DIRECTION ( 'NONE',  ( -1.000000000000000000, 0.000000000000000000, 0.000000000000000000 ) ) ;
#379 = PERSON_AND_ORGANIZATION ( #94, #366 ) ;
#380 = LOCAL_TIME ( 18, 57, 34.00000000000000000, #320 ) ;
#381 = ADVANCED_FACE ( 'NONE', ( #210 ), #252, .T. ) ;
#382 = AXIS2_PLACEMENT_3D ( 'NONE', #212, #121, #334 ) ;
#383 = PERSON_AND_ORGANIZATION ( #94, #366 ) ;
#384 = APPLICATION_PROTOCOL_DEFINITION ( 'international standard', 'config_control_design', 1994, #192 ) ;
#385 = EDGE_CURVE ( 'NONE', #203, #331, #189, .T. ) ;
#386 = ADVANCED_BREP_SHAPE_REPRESENTATION ( 'Bague PTFE', ( #96, #215 ), #354 ) ;
#387 = AXIS2_PLACEMENT_3D ( 'NONE', #345, #64, #314 ) ;
#388 = ORIENTED_EDGE ( 'NONE', *, *, #342, .T. ) ;
#389 = CARTESIAN_POINT ( 'NONE',  ( 0.000000000000000000, 0.000000000000000000, -13.58374274382762081 ) ) ;
#390 = VERTEX_POINT ( 'NONE', #223 ) ;
#391 = VERTEX_POINT ( 'NONE', #187 ) ;
#392 = ADVANCED_FACE ( 'NONE', ( #409, #129 ), #147, .T. ) ;
#393 = ORIENTED_EDGE ( 'NONE', *, *, #262, .T. ) ;
#394 = EDGE_CURVE ( 'NONE', #203, #175, #273, .T. ) ;
#395 = VERTEX_POINT ( 'NONE', #271 ) ;
#396 =( LENGTH_UNIT ( ) NAMED_UNIT ( * ) SI_UNIT ( .MILLI., .METRE. ) );
#397 = AXIS2_PLACEMENT_3D ( 'NONE', #204, #360, #238 ) ;
#398 = CARTESIAN_POINT ( 'NONE',  ( 0.000000000000000000, 0.000000000000000000, 0.7162572561723867803 ) ) ;
#399 = DIRECTION ( 'NONE',  ( -0.000000000000000000, -0.000000000000000000, -1.000000000000000000 ) ) ;
#400 = CARTESIAN_POINT ( 'NONE',  ( 0.000000000000000000, 0.000000000000000000, -89.20212765957447232 ) ) ;
#401 = ORIENTED_EDGE ( 'NONE', *, *, #106, .T. ) ;
#402 = DIRECTION ( 'NONE',  ( -0.000000000000000000, -0.000000000000000000, -1.000000000000000000 ) ) ;
#403 = DIRECTION ( 'NONE',  ( 1.000000000000000000, 0.000000000000000000, 0.000000000000000000 ) ) ;
#404 = FACE_OUTER_BOUND ( 'NONE', #45, .T. ) ;
#405 = DIRECTION ( 'NONE',  ( -0.000000000000000000, -0.000000000000000000, -1.000000000000000000 ) ) ;
#406 = CARTESIAN_POINT ( 'NONE',  ( 55.74999999999998579, 6.827405905246493187E-15, -13.58374274382762081 ) ) ;
#407 = AXIS2_PLACEMENT_3D ( 'NONE', #180, #125, #374 ) ;
#408 = VERTEX_POINT ( 'NONE', #406 ) ;
#409 = FACE_BOUND ( 'NONE', #128, .T. ) ;
ENDSEC;
END-ISO-10303-21;
