ISO-10303-21;
HEADER;
/* Generated by software containing ST-Developer
 * from STEP Tools, Inc. (www.steptools.com) 
 */

FILE_DESCRIPTION(
/* description */ (''),
/* implementation_level */ '2;1');

FILE_NAME(
/* name */ 'Support_Bateau.step',
/* time_stamp */ '2024-01-08T19:36:57+01:00',
/* author */ (''),
/* organization */ (''),
/* preprocessor_version */ 'ST-DEVELOPER v20',
/* originating_system */ 'Autodesk Translation Framework v12.14.0.127',

/* authorisation */ '');

FILE_SCHEMA (('AUTOMOTIVE_DESIGN { 1 0 10303 214 3 1 1 }'));
ENDSEC;

DATA;
#10=MECHANICAL_DESIGN_GEOMETRIC_PRESENTATION_REPRESENTATION('',(#13),#288);
#11=SHAPE_REPRESENTATION_RELATIONSHIP('SRR','None',#294,#12);
#12=ADVANCED_BREP_SHAPE_REPRESENTATION('',(#14),#287);
#13=STYLED_ITEM('',(#304),#14);
#14=MANIFOLD_SOLID_BREP('Corps1',#176);
#15=FACE_BOUND('',#40,.T.);
#16=FACE_BOUND('',#41,.T.);
#17=FACE_BOUND('',#42,.T.);
#18=FACE_BOUND('',#48,.T.);
#19=FACE_BOUND('',#49,.T.);
#20=FACE_BOUND('',#50,.T.);
#21=PLANE('',#181);
#22=PLANE('',#182);
#23=PLANE('',#183);
#24=PLANE('',#190);
#25=PLANE('',#191);
#26=PLANE('',#192);
#27=FACE_OUTER_BOUND('',#36,.T.);
#28=FACE_OUTER_BOUND('',#37,.T.);
#29=FACE_OUTER_BOUND('',#38,.T.);
#30=FACE_OUTER_BOUND('',#39,.T.);
#31=FACE_OUTER_BOUND('',#43,.T.);
#32=FACE_OUTER_BOUND('',#44,.T.);
#33=FACE_OUTER_BOUND('',#45,.T.);
#34=FACE_OUTER_BOUND('',#46,.T.);
#35=FACE_OUTER_BOUND('',#47,.T.);
#36=EDGE_LOOP('',(#122,#123,#124,#125));
#37=EDGE_LOOP('',(#126,#127,#128,#129));
#38=EDGE_LOOP('',(#130,#131,#132,#133));
#39=EDGE_LOOP('',(#134,#135,#136,#137));
#40=EDGE_LOOP('',(#138));
#41=EDGE_LOOP('',(#139));
#42=EDGE_LOOP('',(#140));
#43=EDGE_LOOP('',(#141,#142,#143,#144));
#44=EDGE_LOOP('',(#145,#146,#147,#148));
#45=EDGE_LOOP('',(#149,#150,#151,#152));
#46=EDGE_LOOP('',(#153,#154,#155,#156));
#47=EDGE_LOOP('',(#157,#158,#159,#160));
#48=EDGE_LOOP('',(#161));
#49=EDGE_LOOP('',(#162));
#50=EDGE_LOOP('',(#163));
#51=LINE('',#245,#66);
#52=LINE('',#250,#67);
#53=LINE('',#252,#68);
#54=LINE('',#254,#69);
#55=LINE('',#255,#70);
#56=LINE('',#258,#71);
#57=LINE('',#260,#72);
#58=LINE('',#261,#73);
#59=LINE('',#264,#74);
#60=LINE('',#265,#75);
#61=LINE('',#272,#76);
#62=LINE('',#276,#77);
#63=LINE('',#280,#78);
#64=LINE('',#281,#79);
#65=LINE('',#283,#80);
#66=VECTOR('',#199,2.5);
#67=VECTOR('',#204,10.);
#68=VECTOR('',#205,10.);
#69=VECTOR('',#206,10.);
#70=VECTOR('',#207,10.);
#71=VECTOR('',#210,10.);
#72=VECTOR('',#211,10.);
#73=VECTOR('',#212,10.);
#74=VECTOR('',#215,10.);
#75=VECTOR('',#216,10.);
#76=VECTOR('',#223,2.5);
#77=VECTOR('',#228,4.);
#78=VECTOR('',#233,10.);
#79=VECTOR('',#234,10.);
#80=VECTOR('',#237,10.);
#81=CIRCLE('',#179,2.117);
#82=CIRCLE('',#180,2.117);
#83=CIRCLE('',#184,4.);
#84=CIRCLE('',#185,2.117);
#85=CIRCLE('',#187,2.117);
#86=CIRCLE('',#189,4.);
#87=VERTEX_POINT('',#242);
#88=VERTEX_POINT('',#244);
#89=VERTEX_POINT('',#248);
#90=VERTEX_POINT('',#249);
#91=VERTEX_POINT('',#251);
#92=VERTEX_POINT('',#253);
#93=VERTEX_POINT('',#257);
#94=VERTEX_POINT('',#259);
#95=VERTEX_POINT('',#263);
#96=VERTEX_POINT('',#266);
#97=VERTEX_POINT('',#268);
#98=VERTEX_POINT('',#271);
#99=VERTEX_POINT('',#275);
#100=VERTEX_POINT('',#279);
#101=EDGE_CURVE('',#87,#87,#81,.T.);
#102=EDGE_CURVE('',#87,#88,#51,.T.);
#103=EDGE_CURVE('',#88,#88,#82,.F.);
#104=EDGE_CURVE('',#89,#90,#52,.T.);
#105=EDGE_CURVE('',#91,#89,#53,.T.);
#106=EDGE_CURVE('',#92,#91,#54,.T.);
#107=EDGE_CURVE('',#90,#92,#55,.T.);
#108=EDGE_CURVE('',#93,#92,#56,.T.);
#109=EDGE_CURVE('',#94,#93,#57,.T.);
#110=EDGE_CURVE('',#90,#94,#58,.T.);
#111=EDGE_CURVE('',#95,#91,#59,.T.);
#112=EDGE_CURVE('',#95,#93,#60,.T.);
#113=EDGE_CURVE('',#96,#96,#83,.T.);
#114=EDGE_CURVE('',#97,#97,#84,.T.);
#115=EDGE_CURVE('',#97,#98,#61,.T.);
#116=EDGE_CURVE('',#98,#98,#85,.F.);
#117=EDGE_CURVE('',#96,#99,#62,.T.);
#118=EDGE_CURVE('',#99,#99,#86,.T.);
#119=EDGE_CURVE('',#94,#100,#63,.T.);
#120=EDGE_CURVE('',#100,#95,#64,.T.);
#121=EDGE_CURVE('',#100,#89,#65,.T.);
#122=ORIENTED_EDGE('',*,*,#101,.F.);
#123=ORIENTED_EDGE('',*,*,#102,.T.);
#124=ORIENTED_EDGE('',*,*,#103,.F.);
#125=ORIENTED_EDGE('',*,*,#102,.F.);
#126=ORIENTED_EDGE('',*,*,#104,.F.);
#127=ORIENTED_EDGE('',*,*,#105,.F.);
#128=ORIENTED_EDGE('',*,*,#106,.F.);
#129=ORIENTED_EDGE('',*,*,#107,.F.);
#130=ORIENTED_EDGE('',*,*,#107,.T.);
#131=ORIENTED_EDGE('',*,*,#108,.F.);
#132=ORIENTED_EDGE('',*,*,#109,.F.);
#133=ORIENTED_EDGE('',*,*,#110,.F.);
#134=ORIENTED_EDGE('',*,*,#106,.T.);
#135=ORIENTED_EDGE('',*,*,#111,.F.);
#136=ORIENTED_EDGE('',*,*,#112,.T.);
#137=ORIENTED_EDGE('',*,*,#108,.T.);
#138=ORIENTED_EDGE('',*,*,#101,.T.);
#139=ORIENTED_EDGE('',*,*,#113,.T.);
#140=ORIENTED_EDGE('',*,*,#114,.T.);
#141=ORIENTED_EDGE('',*,*,#114,.F.);
#142=ORIENTED_EDGE('',*,*,#115,.T.);
#143=ORIENTED_EDGE('',*,*,#116,.F.);
#144=ORIENTED_EDGE('',*,*,#115,.F.);
#145=ORIENTED_EDGE('',*,*,#113,.F.);
#146=ORIENTED_EDGE('',*,*,#117,.T.);
#147=ORIENTED_EDGE('',*,*,#118,.F.);
#148=ORIENTED_EDGE('',*,*,#117,.F.);
#149=ORIENTED_EDGE('',*,*,#119,.F.);
#150=ORIENTED_EDGE('',*,*,#109,.T.);
#151=ORIENTED_EDGE('',*,*,#112,.F.);
#152=ORIENTED_EDGE('',*,*,#120,.F.);
#153=ORIENTED_EDGE('',*,*,#105,.T.);
#154=ORIENTED_EDGE('',*,*,#121,.F.);
#155=ORIENTED_EDGE('',*,*,#120,.T.);
#156=ORIENTED_EDGE('',*,*,#111,.T.);
#157=ORIENTED_EDGE('',*,*,#104,.T.);
#158=ORIENTED_EDGE('',*,*,#110,.T.);
#159=ORIENTED_EDGE('',*,*,#119,.T.);
#160=ORIENTED_EDGE('',*,*,#121,.T.);
#161=ORIENTED_EDGE('',*,*,#103,.T.);
#162=ORIENTED_EDGE('',*,*,#116,.T.);
#163=ORIENTED_EDGE('',*,*,#118,.T.);
#164=CYLINDRICAL_SURFACE('',#178,2.117);
#165=CYLINDRICAL_SURFACE('',#186,2.117);
#166=CYLINDRICAL_SURFACE('',#188,4.);
#167=ADVANCED_FACE('',(#27),#164,.F.);
#168=ADVANCED_FACE('',(#28),#21,.F.);
#169=ADVANCED_FACE('',(#29),#22,.T.);
#170=ADVANCED_FACE('',(#30,#15,#16,#17),#23,.T.);
#171=ADVANCED_FACE('',(#31),#165,.F.);
#172=ADVANCED_FACE('',(#32),#166,.F.);
#173=ADVANCED_FACE('',(#33),#24,.T.);
#174=ADVANCED_FACE('',(#34),#25,.T.);
#175=ADVANCED_FACE('',(#35,#18,#19,#20),#26,.F.);
#176=CLOSED_SHELL('',(#167,#168,#169,#170,#171,#172,#173,#174,#175));
#177=AXIS2_PLACEMENT_3D('',#240,#193,#194);
#178=AXIS2_PLACEMENT_3D('',#241,#195,#196);
#179=AXIS2_PLACEMENT_3D('',#243,#197,#198);
#180=AXIS2_PLACEMENT_3D('',#246,#200,#201);
#181=AXIS2_PLACEMENT_3D('',#247,#202,#203);
#182=AXIS2_PLACEMENT_3D('',#256,#208,#209);
#183=AXIS2_PLACEMENT_3D('',#262,#213,#214);
#184=AXIS2_PLACEMENT_3D('',#267,#217,#218);
#185=AXIS2_PLACEMENT_3D('',#269,#219,#220);
#186=AXIS2_PLACEMENT_3D('',#270,#221,#222);
#187=AXIS2_PLACEMENT_3D('',#273,#224,#225);
#188=AXIS2_PLACEMENT_3D('',#274,#226,#227);
#189=AXIS2_PLACEMENT_3D('',#277,#229,#230);
#190=AXIS2_PLACEMENT_3D('',#278,#231,#232);
#191=AXIS2_PLACEMENT_3D('',#282,#235,#236);
#192=AXIS2_PLACEMENT_3D('',#284,#238,#239);
#193=DIRECTION('axis',(0.,0.,1.));
#194=DIRECTION('refdir',(1.,0.,0.));
#195=DIRECTION('center_axis',(0.,0.,-1.));
#196=DIRECTION('ref_axis',(-1.,0.,0.));
#197=DIRECTION('center_axis',(0.,0.,-1.));
#198=DIRECTION('ref_axis',(-1.,0.,0.));
#199=DIRECTION('',(0.,0.,-1.));
#200=DIRECTION('center_axis',(0.,0.,-1.));
#201=DIRECTION('ref_axis',(-1.,0.,0.));
#202=DIRECTION('center_axis',(1.,0.,0.));
#203=DIRECTION('ref_axis',(0.,0.,-1.));
#204=DIRECTION('',(0.,1.,0.));
#205=DIRECTION('',(0.,0.,-1.));
#206=DIRECTION('',(0.,-1.,0.));
#207=DIRECTION('',(0.,0.,1.));
#208=DIRECTION('center_axis',(0.,1.,0.));
#209=DIRECTION('ref_axis',(-1.,0.,0.));
#210=DIRECTION('',(-1.,0.,0.));
#211=DIRECTION('',(0.,0.,1.));
#212=DIRECTION('',(1.,0.,0.));
#213=DIRECTION('center_axis',(0.,0.,1.));
#214=DIRECTION('ref_axis',(1.,0.,0.));
#215=DIRECTION('',(-1.,0.,0.));
#216=DIRECTION('',(0.,1.,0.));
#217=DIRECTION('center_axis',(0.,0.,-1.));
#218=DIRECTION('ref_axis',(-1.,0.,0.));
#219=DIRECTION('center_axis',(0.,0.,-1.));
#220=DIRECTION('ref_axis',(-1.,0.,0.));
#221=DIRECTION('center_axis',(0.,0.,-1.));
#222=DIRECTION('ref_axis',(-1.,0.,0.));
#223=DIRECTION('',(0.,0.,-1.));
#224=DIRECTION('center_axis',(0.,0.,-1.));
#225=DIRECTION('ref_axis',(-1.,0.,0.));
#226=DIRECTION('center_axis',(0.,0.,-1.));
#227=DIRECTION('ref_axis',(-1.,0.,0.));
#228=DIRECTION('',(0.,0.,-1.));
#229=DIRECTION('center_axis',(0.,0.,1.));
#230=DIRECTION('ref_axis',(-1.,0.,0.));
#231=DIRECTION('center_axis',(1.,0.,0.));
#232=DIRECTION('ref_axis',(0.,1.,0.));
#233=DIRECTION('',(0.,-1.,0.));
#234=DIRECTION('',(0.,0.,1.));
#235=DIRECTION('center_axis',(0.,-1.,0.));
#236=DIRECTION('ref_axis',(1.,0.,0.));
#237=DIRECTION('',(-1.,0.,0.));
#238=DIRECTION('center_axis',(0.,0.,1.));
#239=DIRECTION('ref_axis',(1.,0.,0.));
#240=CARTESIAN_POINT('',(0.,0.,0.));
#241=CARTESIAN_POINT('Origin',(-56.7619999999998,-3.06161699786838E-16,
8.));
#242=CARTESIAN_POINT('',(-54.6449999999998,-5.65419427166333E-16,8.));
#243=CARTESIAN_POINT('Origin',(-56.7619999999998,-3.06161699786838E-16,
8.));
#244=CARTESIAN_POINT('',(-54.6449999999998,-5.65419427166333E-16,0.));
#245=CARTESIAN_POINT('',(-54.6449999999998,-5.65419427166333E-16,8.));
#246=CARTESIAN_POINT('Origin',(-56.7619999999998,-3.06161699786838E-16,
0.));
#247=CARTESIAN_POINT('Origin',(-61.7615,10.,0.));
#248=CARTESIAN_POINT('',(-61.7615,-10.,0.));
#249=CARTESIAN_POINT('',(-61.7615,10.,0.));
#250=CARTESIAN_POINT('',(-61.7615,5.,0.));
#251=CARTESIAN_POINT('',(-61.7615,-10.,8.));
#252=CARTESIAN_POINT('',(-61.7615,-10.,0.));
#253=CARTESIAN_POINT('',(-61.7615,10.,8.));
#254=CARTESIAN_POINT('',(-61.7615,5.,8.));
#255=CARTESIAN_POINT('',(-61.7615,10.,0.));
#256=CARTESIAN_POINT('Origin',(35.2385,10.,0.));
#257=CARTESIAN_POINT('',(35.2385,10.,8.));
#258=CARTESIAN_POINT('',(-35.2385,10.,8.));
#259=CARTESIAN_POINT('',(35.2385,10.,0.));
#260=CARTESIAN_POINT('',(35.2385,10.,0.));
#261=CARTESIAN_POINT('',(-35.2385,10.,0.));
#262=CARTESIAN_POINT('Origin',(0.,0.,8.));
#263=CARTESIAN_POINT('',(35.2385,-10.,8.));
#264=CARTESIAN_POINT('',(-35.2385,-10.,8.));
#265=CARTESIAN_POINT('',(35.2385,10.,8.));
#266=CARTESIAN_POINT('',(29.2385,-2.84081035421653E-15,8.));
#267=CARTESIAN_POINT('Origin',(25.2385,-3.33066907387547E-15,8.));
#268=CARTESIAN_POINT('',(-31.6449999999997,-1.57910927224152E-13,8.));
#269=CARTESIAN_POINT('Origin',(-33.7619999999997,-1.57651669496772E-13,
8.));
#270=CARTESIAN_POINT('Origin',(-33.7619999999997,-1.57651669496772E-13,
8.));
#271=CARTESIAN_POINT('',(-31.6449999999997,-1.57910927224152E-13,0.));
#272=CARTESIAN_POINT('',(-31.6449999999997,-1.57910927224152E-13,8.));
#273=CARTESIAN_POINT('Origin',(-33.7619999999997,-1.57651669496772E-13,
0.));
#274=CARTESIAN_POINT('Origin',(25.2385,-3.33066907387547E-15,8.));
#275=CARTESIAN_POINT('',(29.2385,-2.84081035421653E-15,0.));
#276=CARTESIAN_POINT('',(29.2385,-3.82052779353441E-15,8.));
#277=CARTESIAN_POINT('Origin',(25.2385,-3.33066907387547E-15,0.));
#278=CARTESIAN_POINT('Origin',(35.2385,-10.,0.));
#279=CARTESIAN_POINT('',(35.2385,-10.,0.));
#280=CARTESIAN_POINT('',(35.2385,10.,0.));
#281=CARTESIAN_POINT('',(35.2385,-10.,0.));
#282=CARTESIAN_POINT('Origin',(-35.2385,-10.,0.));
#283=CARTESIAN_POINT('',(-35.2385,-10.,0.));
#284=CARTESIAN_POINT('Origin',(0.,0.,0.));
#285=UNCERTAINTY_MEASURE_WITH_UNIT(LENGTH_MEASURE(0.01),#289,
'DISTANCE_ACCURACY_VALUE',
'Maximum model space distance between geometric entities at asserted c
onnectivities');
#286=UNCERTAINTY_MEASURE_WITH_UNIT(LENGTH_MEASURE(0.01),#289,
'DISTANCE_ACCURACY_VALUE',
'Maximum model space distance between geometric entities at asserted c
onnectivities');
#287=(
GEOMETRIC_REPRESENTATION_CONTEXT(3)
GLOBAL_UNCERTAINTY_ASSIGNED_CONTEXT((#285))
GLOBAL_UNIT_ASSIGNED_CONTEXT((#289,#290,#291))
REPRESENTATION_CONTEXT('','3D')
);
#288=(
GEOMETRIC_REPRESENTATION_CONTEXT(3)
GLOBAL_UNCERTAINTY_ASSIGNED_CONTEXT((#286))
GLOBAL_UNIT_ASSIGNED_CONTEXT((#289,#290,#291))
REPRESENTATION_CONTEXT('','3D')
);
#289=(
LENGTH_UNIT()
NAMED_UNIT(*)
SI_UNIT(.MILLI.,.METRE.)
);
#290=(
NAMED_UNIT(*)
PLANE_ANGLE_UNIT()
SI_UNIT($,.RADIAN.)
);
#291=(
NAMED_UNIT(*)
SI_UNIT($,.STERADIAN.)
SOLID_ANGLE_UNIT()
);
#292=SHAPE_DEFINITION_REPRESENTATION(#293,#294);
#293=PRODUCT_DEFINITION_SHAPE('',$,#296);
#294=SHAPE_REPRESENTATION('',(#177),#287);
#295=PRODUCT_DEFINITION_CONTEXT('part definition',#300,'design');
#296=PRODUCT_DEFINITION('Support_Bateau','Support_Bateau v8',#297,#295);
#297=PRODUCT_DEFINITION_FORMATION('',$,#302);
#298=PRODUCT_RELATED_PRODUCT_CATEGORY('Support_Bateau v8',
'Support_Bateau v8',(#302));
#299=APPLICATION_PROTOCOL_DEFINITION('international standard',
'automotive_design',2009,#300);
#300=APPLICATION_CONTEXT(
'Core Data for Automotive Mechanical Design Process');
#301=PRODUCT_CONTEXT('part definition',#300,'mechanical');
#302=PRODUCT('Support_Bateau','Support_Bateau v8',$,(#301));
#303=PRESENTATION_STYLE_ASSIGNMENT((#305));
#304=PRESENTATION_STYLE_ASSIGNMENT((#306));
#305=SURFACE_STYLE_USAGE(.BOTH.,#307);
#306=SURFACE_STYLE_USAGE(.BOTH.,#308);
#307=SURFACE_SIDE_STYLE('',(#309));
#308=SURFACE_SIDE_STYLE('',(#310));
#309=SURFACE_STYLE_FILL_AREA(#311);
#310=SURFACE_STYLE_FILL_AREA(#312);
#311=FILL_AREA_STYLE('Acier - Satin\X\E9',(#313));
#312=FILL_AREA_STYLE('Cuivre - Brut',(#314));
#313=FILL_AREA_STYLE_COLOUR('Acier - Satin\X\E9',#315);
#314=FILL_AREA_STYLE_COLOUR('Cuivre - Brut',#316);
#315=COLOUR_RGB('Acier - Satin\X\E9',0.627450980392157,0.627450980392157,
0.627450980392157);
#316=COLOUR_RGB('Cuivre - Brut',0.,0.,0.);
ENDSEC;
END-ISO-10303-21;
