ISO-10303-21;
HEADER;
/* Generated by software containing ST-Developer
 * from STEP Tools, Inc. (www.steptools.com) 
 */

FILE_DESCRIPTION(
/* description */ (''),
/* implementation_level */ '2;1');

FILE_NAME(
/* name */ 'bague suprieur safran v2.step',
/* time_stamp */ '2024-04-24T11:59:54+02:00',
/* author */ (''),
/* organization */ (''),
/* preprocessor_version */ 'ST-DEVELOPER v20',
/* originating_system */ 'Autodesk Translation Framework v12.20.1.177',

/* authorisation */ '');

FILE_SCHEMA (('AUTOMOTIVE_DESIGN { 1 0 10303 214 3 1 1 }'));
ENDSEC;

DATA;
#10=MECHANICAL_DESIGN_GEOMETRIC_PRESENTATION_REPRESENTATION('',(#13),#245);
#11=SHAPE_REPRESENTATION_RELATIONSHIP('SRR','None',#252,#12);
#12=ADVANCED_BREP_SHAPE_REPRESENTATION('',(#14),#244);
#13=STYLED_ITEM('',(#261),#14);
#14=MANIFOLD_SOLID_BREP('Corps1',#132);
#15=FACE_BOUND('',#36,.T.);
#16=FACE_BOUND('',#39,.T.);
#17=FACE_BOUND('',#43,.T.);
#18=PLANE('',#151);
#19=PLANE('',#155);
#20=PLANE('',#161);
#21=CYLINDRICAL_SURFACE('',#149,25.);
#22=CYLINDRICAL_SURFACE('',#159,34.);
#23=CYLINDRICAL_SURFACE('',#163,37.5);
#24=FACE_OUTER_BOUND('',#33,.T.);
#25=FACE_OUTER_BOUND('',#34,.T.);
#26=FACE_OUTER_BOUND('',#35,.T.);
#27=FACE_OUTER_BOUND('',#37,.T.);
#28=FACE_OUTER_BOUND('',#38,.T.);
#29=FACE_OUTER_BOUND('',#40,.T.);
#30=FACE_OUTER_BOUND('',#41,.T.);
#31=FACE_OUTER_BOUND('',#42,.T.);
#32=FACE_OUTER_BOUND('',#44,.T.);
#33=EDGE_LOOP('',(#90,#91,#92,#93));
#34=EDGE_LOOP('',(#94,#95,#96,#97));
#35=EDGE_LOOP('',(#98));
#36=EDGE_LOOP('',(#99));
#37=EDGE_LOOP('',(#100,#101,#102,#103));
#38=EDGE_LOOP('',(#104));
#39=EDGE_LOOP('',(#105));
#40=EDGE_LOOP('',(#106,#107,#108,#109));
#41=EDGE_LOOP('',(#110,#111,#112,#113));
#42=EDGE_LOOP('',(#114));
#43=EDGE_LOOP('',(#115));
#44=EDGE_LOOP('',(#116,#117,#118,#119));
#45=LINE('',#213,#51);
#46=LINE('',#218,#52);
#47=LINE('',#225,#53);
#48=LINE('',#231,#54);
#49=LINE('',#235,#55);
#50=LINE('',#241,#56);
#51=VECTOR('',#170,26.);
#52=VECTOR('',#177,25.);
#53=VECTOR('',#186,25.5);
#54=VECTOR('',#193,33.);
#55=VECTOR('',#198,34.);
#56=VECTOR('',#207,37.5);
#57=CIRCLE('',#147,27.);
#58=CIRCLE('',#148,25.);
#59=CIRCLE('',#150,25.);
#60=CIRCLE('',#152,37.5);
#61=CIRCLE('',#154,26.);
#62=CIRCLE('',#156,32.);
#63=CIRCLE('',#158,34.);
#64=CIRCLE('',#160,34.);
#65=CIRCLE('',#162,37.5);
#66=VERTEX_POINT('',#210);
#67=VERTEX_POINT('',#212);
#68=VERTEX_POINT('',#216);
#69=VERTEX_POINT('',#220);
#70=VERTEX_POINT('',#223);
#71=VERTEX_POINT('',#227);
#72=VERTEX_POINT('',#230);
#73=VERTEX_POINT('',#234);
#74=VERTEX_POINT('',#238);
#75=EDGE_CURVE('',#66,#66,#57,.T.);
#76=EDGE_CURVE('',#66,#67,#45,.T.);
#77=EDGE_CURVE('',#67,#67,#58,.T.);
#78=EDGE_CURVE('',#68,#68,#59,.T.);
#79=EDGE_CURVE('',#68,#67,#46,.T.);
#80=EDGE_CURVE('',#69,#69,#60,.T.);
#81=EDGE_CURVE('',#70,#70,#61,.T.);
#82=EDGE_CURVE('',#70,#68,#47,.T.);
#83=EDGE_CURVE('',#71,#71,#62,.T.);
#84=EDGE_CURVE('',#71,#72,#48,.T.);
#85=EDGE_CURVE('',#72,#72,#63,.T.);
#86=EDGE_CURVE('',#72,#73,#49,.T.);
#87=EDGE_CURVE('',#73,#73,#64,.T.);
#88=EDGE_CURVE('',#74,#74,#65,.T.);
#89=EDGE_CURVE('',#69,#74,#50,.T.);
#90=ORIENTED_EDGE('',*,*,#75,.T.);
#91=ORIENTED_EDGE('',*,*,#76,.T.);
#92=ORIENTED_EDGE('',*,*,#77,.T.);
#93=ORIENTED_EDGE('',*,*,#76,.F.);
#94=ORIENTED_EDGE('',*,*,#78,.F.);
#95=ORIENTED_EDGE('',*,*,#79,.T.);
#96=ORIENTED_EDGE('',*,*,#77,.F.);
#97=ORIENTED_EDGE('',*,*,#79,.F.);
#98=ORIENTED_EDGE('',*,*,#80,.T.);
#99=ORIENTED_EDGE('',*,*,#75,.F.);
#100=ORIENTED_EDGE('',*,*,#81,.T.);
#101=ORIENTED_EDGE('',*,*,#82,.T.);
#102=ORIENTED_EDGE('',*,*,#78,.T.);
#103=ORIENTED_EDGE('',*,*,#82,.F.);
#104=ORIENTED_EDGE('',*,*,#83,.F.);
#105=ORIENTED_EDGE('',*,*,#81,.F.);
#106=ORIENTED_EDGE('',*,*,#83,.T.);
#107=ORIENTED_EDGE('',*,*,#84,.T.);
#108=ORIENTED_EDGE('',*,*,#85,.T.);
#109=ORIENTED_EDGE('',*,*,#84,.F.);
#110=ORIENTED_EDGE('',*,*,#85,.F.);
#111=ORIENTED_EDGE('',*,*,#86,.T.);
#112=ORIENTED_EDGE('',*,*,#87,.T.);
#113=ORIENTED_EDGE('',*,*,#86,.F.);
#114=ORIENTED_EDGE('',*,*,#88,.T.);
#115=ORIENTED_EDGE('',*,*,#87,.F.);
#116=ORIENTED_EDGE('',*,*,#80,.F.);
#117=ORIENTED_EDGE('',*,*,#89,.T.);
#118=ORIENTED_EDGE('',*,*,#88,.F.);
#119=ORIENTED_EDGE('',*,*,#89,.F.);
#120=CONICAL_SURFACE('',#146,26.,0.785398163397448);
#121=CONICAL_SURFACE('',#153,25.5,1.0471975511966);
#122=CONICAL_SURFACE('',#157,33.,1.0471975511966);
#123=ADVANCED_FACE('',(#24),#120,.F.);
#124=ADVANCED_FACE('',(#25),#21,.F.);
#125=ADVANCED_FACE('',(#26,#15),#18,.F.);
#126=ADVANCED_FACE('',(#27),#121,.F.);
#127=ADVANCED_FACE('',(#28,#16),#19,.T.);
#128=ADVANCED_FACE('',(#29),#122,.T.);
#129=ADVANCED_FACE('',(#30),#22,.T.);
#130=ADVANCED_FACE('',(#31,#17),#20,.T.);
#131=ADVANCED_FACE('',(#32),#23,.T.);
#132=CLOSED_SHELL('',(#123,#124,#125,#126,#127,#128,#129,#130,#131));
#133=DERIVED_UNIT_ELEMENT(#135,1.);
#134=DERIVED_UNIT_ELEMENT(#247,-3.);
#135=(
MASS_UNIT()
NAMED_UNIT(*)
SI_UNIT(.KILO.,.GRAM.)
);
#136=DERIVED_UNIT((#133,#134));
#137=MEASURE_REPRESENTATION_ITEM('density measure',
POSITIVE_RATIO_MEASURE(7850.),#136);
#138=PROPERTY_DEFINITION_REPRESENTATION(#143,#140);
#139=PROPERTY_DEFINITION_REPRESENTATION(#144,#141);
#140=REPRESENTATION('material name',(#142),#244);
#141=REPRESENTATION('density',(#137),#244);
#142=DESCRIPTIVE_REPRESENTATION_ITEM('Acier','Acier');
#143=PROPERTY_DEFINITION('material property','material name',#254);
#144=PROPERTY_DEFINITION('material property','density of part',#254);
#145=AXIS2_PLACEMENT_3D('',#208,#164,#165);
#146=AXIS2_PLACEMENT_3D('',#209,#166,#167);
#147=AXIS2_PLACEMENT_3D('',#211,#168,#169);
#148=AXIS2_PLACEMENT_3D('',#214,#171,#172);
#149=AXIS2_PLACEMENT_3D('',#215,#173,#174);
#150=AXIS2_PLACEMENT_3D('',#217,#175,#176);
#151=AXIS2_PLACEMENT_3D('',#219,#178,#179);
#152=AXIS2_PLACEMENT_3D('',#221,#180,#181);
#153=AXIS2_PLACEMENT_3D('',#222,#182,#183);
#154=AXIS2_PLACEMENT_3D('',#224,#184,#185);
#155=AXIS2_PLACEMENT_3D('',#226,#187,#188);
#156=AXIS2_PLACEMENT_3D('',#228,#189,#190);
#157=AXIS2_PLACEMENT_3D('',#229,#191,#192);
#158=AXIS2_PLACEMENT_3D('',#232,#194,#195);
#159=AXIS2_PLACEMENT_3D('',#233,#196,#197);
#160=AXIS2_PLACEMENT_3D('',#236,#199,#200);
#161=AXIS2_PLACEMENT_3D('',#237,#201,#202);
#162=AXIS2_PLACEMENT_3D('',#239,#203,#204);
#163=AXIS2_PLACEMENT_3D('',#240,#205,#206);
#164=DIRECTION('axis',(0.,0.,1.));
#165=DIRECTION('refdir',(1.,0.,0.));
#166=DIRECTION('center_axis',(0.,0.,-1.));
#167=DIRECTION('ref_axis',(1.,0.,0.));
#168=DIRECTION('center_axis',(0.,0.,-1.));
#169=DIRECTION('ref_axis',(1.,0.,0.));
#170=DIRECTION('',(0.707106781186547,-8.65956056235493E-17,0.707106781186547));
#171=DIRECTION('center_axis',(0.,0.,1.));
#172=DIRECTION('ref_axis',(1.,0.,0.));
#173=DIRECTION('center_axis',(0.,0.,1.));
#174=DIRECTION('ref_axis',(1.,0.,0.));
#175=DIRECTION('center_axis',(0.,0.,-1.));
#176=DIRECTION('ref_axis',(1.,0.,0.));
#177=DIRECTION('',(0.,0.,-1.));
#178=DIRECTION('center_axis',(0.,0.,1.));
#179=DIRECTION('ref_axis',(1.,0.,0.));
#180=DIRECTION('center_axis',(0.,0.,-1.));
#181=DIRECTION('ref_axis',(1.,0.,0.));
#182=DIRECTION('center_axis',(0.,0.,1.));
#183=DIRECTION('ref_axis',(1.,0.,0.));
#184=DIRECTION('center_axis',(0.,0.,1.));
#185=DIRECTION('ref_axis',(1.,0.,0.));
#186=DIRECTION('',(0.86602540378444,1.06057523872491E-16,-0.499999999999998));
#187=DIRECTION('center_axis',(0.,0.,1.));
#188=DIRECTION('ref_axis',(1.,0.,0.));
#189=DIRECTION('center_axis',(0.,0.,-1.));
#190=DIRECTION('ref_axis',(1.,0.,0.));
#191=DIRECTION('center_axis',(0.,0.,-1.));
#192=DIRECTION('ref_axis',(1.,0.,0.));
#193=DIRECTION('',(-0.866025403784442,-1.06057523872491E-16,-0.499999999999995));
#194=DIRECTION('center_axis',(0.,0.,1.));
#195=DIRECTION('ref_axis',(1.,0.,0.));
#196=DIRECTION('center_axis',(0.,0.,1.));
#197=DIRECTION('ref_axis',(1.,0.,0.));
#198=DIRECTION('',(0.,0.,-1.));
#199=DIRECTION('center_axis',(0.,0.,1.));
#200=DIRECTION('ref_axis',(1.,0.,0.));
#201=DIRECTION('center_axis',(0.,0.,1.));
#202=DIRECTION('ref_axis',(1.,0.,0.));
#203=DIRECTION('center_axis',(0.,0.,1.));
#204=DIRECTION('ref_axis',(1.,0.,0.));
#205=DIRECTION('center_axis',(0.,0.,-1.));
#206=DIRECTION('ref_axis',(1.,0.,0.));
#207=DIRECTION('',(0.,0.,1.));
#208=CARTESIAN_POINT('',(0.,0.,0.));
#209=CARTESIAN_POINT('Origin',(0.,0.,-4.));
#210=CARTESIAN_POINT('',(-27.,3.30654635769785E-15,-5.));
#211=CARTESIAN_POINT('Origin',(0.,0.,-5.));
#212=CARTESIAN_POINT('',(-25.,-3.06161699786838E-15,-3.));
#213=CARTESIAN_POINT('',(-26.,3.18408167778312E-15,-4.));
#214=CARTESIAN_POINT('Origin',(0.,0.,-3.));
#215=CARTESIAN_POINT('Origin',(0.,0.,0.));
#216=CARTESIAN_POINT('',(-25.,3.06161699786838E-15,54.4226497308104));
#217=CARTESIAN_POINT('Origin',(0.,0.,54.4226497308104));
#218=CARTESIAN_POINT('',(-25.,-3.06161699786838E-15,0.));
#219=CARTESIAN_POINT('Origin',(0.,0.,-5.));
#220=CARTESIAN_POINT('',(-37.5,-4.59242549680258E-15,-5.));
#221=CARTESIAN_POINT('Origin',(0.,0.,-5.));
#222=CARTESIAN_POINT('Origin',(0.,0.,54.7113248654052));
#223=CARTESIAN_POINT('',(-26.,-3.18408167778312E-15,55.));
#224=CARTESIAN_POINT('Origin',(0.,0.,55.));
#225=CARTESIAN_POINT('',(-25.5,-3.12284933782575E-15,54.7113248654052));
#226=CARTESIAN_POINT('Origin',(0.,0.,55.));
#227=CARTESIAN_POINT('',(-32.,3.91886975727153E-15,55.));
#228=CARTESIAN_POINT('Origin',(0.,0.,55.));
#229=CARTESIAN_POINT('Origin',(0.,0.,54.4226497308104));
#230=CARTESIAN_POINT('',(-34.,-4.163799117101E-15,53.8452994616208));
#231=CARTESIAN_POINT('',(-33.,-4.04133443718627E-15,54.4226497308104));
#232=CARTESIAN_POINT('Origin',(0.,0.,53.8452994616208));
#233=CARTESIAN_POINT('Origin',(0.,0.,0.));
#234=CARTESIAN_POINT('',(-34.,-4.163799117101E-15,0.));
#235=CARTESIAN_POINT('',(-34.,-4.163799117101E-15,0.));
#236=CARTESIAN_POINT('Origin',(0.,0.,0.));
#237=CARTESIAN_POINT('Origin',(0.,0.,0.));
#238=CARTESIAN_POINT('',(-37.5,-4.59242549680258E-15,0.));
#239=CARTESIAN_POINT('Origin',(0.,0.,0.));
#240=CARTESIAN_POINT('Origin',(0.,0.,0.));
#241=CARTESIAN_POINT('',(-37.5,4.59242549680258E-15,0.));
#242=UNCERTAINTY_MEASURE_WITH_UNIT(LENGTH_MEASURE(0.01),#246,
'DISTANCE_ACCURACY_VALUE',
'Maximum model space distance between geometric entities at asserted c
onnectivities');
#243=UNCERTAINTY_MEASURE_WITH_UNIT(LENGTH_MEASURE(0.01),#246,
'DISTANCE_ACCURACY_VALUE',
'Maximum model space distance between geometric entities at asserted c
onnectivities');
#244=(
GEOMETRIC_REPRESENTATION_CONTEXT(3)
GLOBAL_UNCERTAINTY_ASSIGNED_CONTEXT((#242))
GLOBAL_UNIT_ASSIGNED_CONTEXT((#246,#248,#249))
REPRESENTATION_CONTEXT('','3D')
);
#245=(
GEOMETRIC_REPRESENTATION_CONTEXT(3)
GLOBAL_UNCERTAINTY_ASSIGNED_CONTEXT((#243))
GLOBAL_UNIT_ASSIGNED_CONTEXT((#246,#248,#249))
REPRESENTATION_CONTEXT('','3D')
);
#246=(
LENGTH_UNIT()
NAMED_UNIT(*)
SI_UNIT(.MILLI.,.METRE.)
);
#247=(
LENGTH_UNIT()
NAMED_UNIT(*)
SI_UNIT($,.METRE.)
);
#248=(
NAMED_UNIT(*)
PLANE_ANGLE_UNIT()
SI_UNIT($,.RADIAN.)
);
#249=(
NAMED_UNIT(*)
SI_UNIT($,.STERADIAN.)
SOLID_ANGLE_UNIT()
);
#250=SHAPE_DEFINITION_REPRESENTATION(#251,#252);
#251=PRODUCT_DEFINITION_SHAPE('',$,#254);
#252=SHAPE_REPRESENTATION('',(#145),#244);
#253=PRODUCT_DEFINITION_CONTEXT('part definition',#258,'design');
#254=PRODUCT_DEFINITION('bague sup\X\E9rieur safran',
'bague sup\X\E9rieur safran v2',#255,#253);
#255=PRODUCT_DEFINITION_FORMATION('',$,#260);
#256=PRODUCT_RELATED_PRODUCT_CATEGORY('bague sup\X\E9rieur safran v2',
'bague sup\X\E9rieur safran v2',(#260));
#257=APPLICATION_PROTOCOL_DEFINITION('international standard',
'automotive_design',2009,#258);
#258=APPLICATION_CONTEXT(
'Core Data for Automotive Mechanical Design Process');
#259=PRODUCT_CONTEXT('part definition',#258,'mechanical');
#260=PRODUCT('bague sup\X\E9rieur safran','bague sup\X\E9rieur safran 
v2',$,(#259));
#261=PRESENTATION_STYLE_ASSIGNMENT((#262));
#262=SURFACE_STYLE_USAGE(.BOTH.,#263);
#263=SURFACE_SIDE_STYLE('',(#264));
#264=SURFACE_STYLE_FILL_AREA(#265);
#265=FILL_AREA_STYLE('Acier - Satin\X\E9',(#266));
#266=FILL_AREA_STYLE_COLOUR('Acier - Satin\X\E9',#267);
#267=COLOUR_RGB('Acier - Satin\X\E9',0.627450980392157,0.627450980392157,
0.627450980392157);
ENDSEC;
END-ISO-10303-21;
