ISO-10303-21;
HEADER;
FILE_DESCRIPTION( ( 'STEP AP203' ), '1' );
FILE_NAME( ' ', '  ', ( '  ' ), ( '  ' ), 'PSStep 10.1', '  ', '  ' );
FILE_SCHEMA( ( 'CONFIG_CONTROL_DESIGN' ) );
ENDSEC;
DATA;
#1 = DESIGN_CONTEXT( '', #27, 'design' );
#2 = APPLICATION_PROTOCOL_DEFINITION( 'INTERNATIONAL STANDARD', 'config_control_design', 1994, #27 );
#3 = PRODUCT_CATEGORY_RELATIONSHIP( 'NONE', 'NONE', #28, #29 );
#4 = DATE_AND_TIME( #30, #31 );
#5 = DATE_TIME_ROLE( 'creation_date' );
#6 = DATE_TIME_ROLE( 'classification_date' );
#7 = PERSON_AND_ORGANIZATION_ROLE( 'creator' );
#8 = PERSON_AND_ORGANIZATION_ROLE( 'design_supplier' );
#9 = PERSON_AND_ORGANIZATION_ROLE( 'classification_officer' );
#10 = PERSON_AND_ORGANIZATION_ROLE( 'design_owner' );
#11 = APPROVAL_PERSON_ORGANIZATION( #32, #33, #34 );
#12 = APPROVAL_DATE_TIME( #4, #33 );
#13 = CC_DESIGN_APPROVAL( #33, ( #35, #36, #37 ) );
#14 = CC_DESIGN_DATE_AND_TIME_ASSIGNMENT( #4, #5, ( #37 ) );
#15 = CC_DESIGN_DATE_AND_TIME_ASSIGNMENT( #4, #6, ( #35 ) );
#16 = CC_DESIGN_PERSON_AND_ORGANIZATION_ASSIGNMENT( #32, #10, ( #38 ) );
#17 = CC_DESIGN_PERSON_AND_ORGANIZATION_ASSIGNMENT( #32, #7, ( #37 ) );
#18 = CC_DESIGN_PERSON_AND_ORGANIZATION_ASSIGNMENT( #32, #7, ( #36 ) );
#19 = CC_DESIGN_PERSON_AND_ORGANIZATION_ASSIGNMENT( #32, #8, ( #36 ) );
#20 = CC_DESIGN_SECURITY_CLASSIFICATION( #35, ( #36 ) );
#21 = CC_DESIGN_PERSON_AND_ORGANIZATION_ASSIGNMENT( #32, #9, ( #35 ) );
#22 = SHAPE_DEFINITION_REPRESENTATION( #39, #40 );
#23 =  ( GEOMETRIC_REPRESENTATION_CONTEXT( 3 )GLOBAL_UNCERTAINTY_ASSIGNED_CONTEXT( ( #43 ) )GLOBAL_UNIT_ASSIGNED_CONTEXT( ( #45, #46, #47 ) )REPRESENTATION_CONTEXT( 'NONE', 'WORKSPACE' ) );
#27 = APPLICATION_CONTEXT( 'CONFIGURATION CONTROLLED 3D DESIGNS OF MECHANICAL PARTS AND ASSEMBLIES' );
#28 = PRODUCT_CATEGORY( 'part', 'NONE' );
#29 = PRODUCT_RELATED_PRODUCT_CATEGORY( 'detail', ' ', ( #38 ) );
#30 = CALENDAR_DATE( 2024, 25, 3 );
#31 = LOCAL_TIME( 11, 15, 55.0000000000000, #49 );
#32 = PERSON_AND_ORGANIZATION( #50, #51 );
#33 = APPROVAL( #52, 'SOLID MODEL' );
#34 = APPROVAL_ROLE( 'APPROVED' );
#35 = SECURITY_CLASSIFICATION( '', '', #53 );
#36 = PRODUCT_DEFINITION_FORMATION_WITH_SPECIFIED_SOURCE( ' ', 'NONE', #38, .NOT_KNOWN. );
#37 = PRODUCT_DEFINITION( 'NONE', 'NONE', #36, #1 );
#38 = PRODUCT( '1', '1', 'PART-1-DESC', ( #54 ) );
#39 = PRODUCT_DEFINITION_SHAPE( 'NONE', 'NONE', #37 );
#40 = ADVANCED_BREP_SHAPE_REPRESENTATION( '1', ( #55, #56 ), #23 );
#43 = UNCERTAINTY_MEASURE_WITH_UNIT( LENGTH_MEASURE( 0.00100000000000000 ), #45, '', '' );
#45 =  ( CONVERSION_BASED_UNIT( 'MILLIMETRE', #59 )LENGTH_UNIT(  )NAMED_UNIT( #62 ) );
#46 =  ( NAMED_UNIT( #64 )PLANE_ANGLE_UNIT(  )SI_UNIT( $, .RADIAN. ) );
#47 =  ( NAMED_UNIT( #64 )SI_UNIT( $, .STERADIAN. )SOLID_ANGLE_UNIT(  ) );
#49 = COORDINATED_UNIVERSAL_TIME_OFFSET( 1, 0, .AHEAD. );
#50 = PERSON( '', 'UNSPECIFIED', $, $, $, $ );
#51 = ORGANIZATION( 'UNSPECIFIED', 'UNSPECIFIED', 'UNSPECIFIED' );
#52 = APPROVAL_STATUS( 'approved' );
#53 = SECURITY_CLASSIFICATION_LEVEL( 'unclassified' );
#54 = MECHANICAL_CONTEXT( '', #27, 'mechanical' );
#55 = MANIFOLD_SOLID_BREP( '1', #70 );
#56 = AXIS2_PLACEMENT_3D( '', #71, #72, #73 );
#59 = LENGTH_MEASURE_WITH_UNIT( LENGTH_MEASURE( 1.00000000000000 ), #74 );
#62 = DIMENSIONAL_EXPONENTS( 1.00000000000000, 0.000000000000000, 0.000000000000000, 0.000000000000000, 0.000000000000000, 0.000000000000000, 0.000000000000000 );
#64 = DIMENSIONAL_EXPONENTS( 0.000000000000000, 0.000000000000000, 0.000000000000000, 0.000000000000000, 0.000000000000000, 0.000000000000000, 0.000000000000000 );
#70 = CLOSED_SHELL( '', ( #75, #76, #77, #78, #79, #80, #81, #82, #83, #84, #85, #86, #87 ) );
#71 = CARTESIAN_POINT( '', ( 0.000000000000000, 0.000000000000000, 0.000000000000000 ) );
#72 = DIRECTION( '', ( 0.000000000000000, 0.000000000000000, 1.00000000000000 ) );
#73 = DIRECTION( '', ( 1.00000000000000, 0.000000000000000, 0.000000000000000 ) );
#74 =  ( LENGTH_UNIT(  )NAMED_UNIT( #62 )SI_UNIT( .MILLI., .METRE. ) );
#75 = ADVANCED_FACE( '', ( #89 ), #90, .F. );
#76 = ADVANCED_FACE( '', ( #91, #92 ), #93, .T. );
#77 = ADVANCED_FACE( '', ( #94 ), #95, .T. );
#78 = ADVANCED_FACE( '', ( #96 ), #97, .T. );
#79 = ADVANCED_FACE( '', ( #98 ), #99, .T. );
#80 = ADVANCED_FACE( '', ( #100 ), #101, .T. );
#81 = ADVANCED_FACE( '', ( #102, #103 ), #104, .F. );
#82 = ADVANCED_FACE( '', ( #105 ), #106, .T. );
#83 = ADVANCED_FACE( '', ( #107, #108 ), #109, .T. );
#84 = ADVANCED_FACE( '', ( #110 ), #111, .T. );
#85 = ADVANCED_FACE( '', ( #112 ), #113, .T. );
#86 = ADVANCED_FACE( '', ( #114 ), #115, .T. );
#87 = ADVANCED_FACE( '', ( #116 ), #117, .F. );
#89 = FACE_OUTER_BOUND( '', #118, .T. );
#90 = CYLINDRICAL_SURFACE( '', #119, 3.00000000000000 );
#91 = FACE_OUTER_BOUND( '', #120, .T. );
#92 = FACE_BOUND( '', #121, .T. );
#93 = PLANE( '', #122 );
#94 = FACE_OUTER_BOUND( '', #123, .T. );
#95 = CYLINDRICAL_SURFACE( '', #124, 40.0000000000000 );
#96 = FACE_OUTER_BOUND( '', #125, .T. );
#97 = CYLINDRICAL_SURFACE( '', #126, 40.0000000000000 );
#98 = FACE_OUTER_BOUND( '', #127, .T. );
#99 = PLANE( '', #128 );
#100 = FACE_OUTER_BOUND( '', #129, .T. );
#101 = CYLINDRICAL_SURFACE( '', #130, 25.0000000000000 );
#102 = FACE_OUTER_BOUND( '', #131, .T. );
#103 = FACE_BOUND( '', #132, .T. );
#104 = PLANE( '', #133 );
#105 = FACE_OUTER_BOUND( '', #134, .T. );
#106 = CYLINDRICAL_SURFACE( '', #135, 25.0000000000000 );
#107 = FACE_OUTER_BOUND( '', #136, .T. );
#108 = FACE_BOUND( '', #137, .T. );
#109 = PLANE( '', #138 );
#110 = FACE_OUTER_BOUND( '', #139, .T. );
#111 = CYLINDRICAL_SURFACE( '', #140, 8.12800000000000 );
#112 = FACE_OUTER_BOUND( '', #141, .T. );
#113 = CYLINDRICAL_SURFACE( '', #142, 8.12800000000000 );
#114 = FACE_OUTER_BOUND( '', #143, .T. );
#115 = PLANE( '', #144 );
#116 = FACE_OUTER_BOUND( '', #145, .T. );
#117 = CYLINDRICAL_SURFACE( '', #146, 3.00000000000000 );
#118 = EDGE_LOOP( '', ( #147, #148, #149, #150 ) );
#119 = AXIS2_PLACEMENT_3D( '', #151, #152, #153 );
#120 = EDGE_LOOP( '', ( #154, #155 ) );
#121 = EDGE_LOOP( '', ( #156, #157 ) );
#122 = AXIS2_PLACEMENT_3D( '', #158, #159, #160 );
#123 = EDGE_LOOP( '', ( #161, #162, #163, #164 ) );
#124 = AXIS2_PLACEMENT_3D( '', #165, #166, #167 );
#125 = EDGE_LOOP( '', ( #168, #169, #170, #171 ) );
#126 = AXIS2_PLACEMENT_3D( '', #172, #173, #174 );
#127 = EDGE_LOOP( '', ( #175, #176 ) );
#128 = AXIS2_PLACEMENT_3D( '', #177, #178, #179 );
#129 = EDGE_LOOP( '', ( #180, #181, #182, #183 ) );
#130 = AXIS2_PLACEMENT_3D( '', #184, #185, #186 );
#131 = EDGE_LOOP( '', ( #187, #188 ) );
#132 = EDGE_LOOP( '', ( #189, #190 ) );
#133 = AXIS2_PLACEMENT_3D( '', #191, #192, #193 );
#134 = EDGE_LOOP( '', ( #194, #195, #196, #197 ) );
#135 = AXIS2_PLACEMENT_3D( '', #198, #199, #200 );
#136 = EDGE_LOOP( '', ( #201, #202 ) );
#137 = EDGE_LOOP( '', ( #203, #204 ) );
#138 = AXIS2_PLACEMENT_3D( '', #205, #206, #207 );
#139 = EDGE_LOOP( '', ( #208, #209, #210, #211 ) );
#140 = AXIS2_PLACEMENT_3D( '', #212, #213, #214 );
#141 = EDGE_LOOP( '', ( #215, #216, #217, #218 ) );
#142 = AXIS2_PLACEMENT_3D( '', #219, #220, #221 );
#143 = EDGE_LOOP( '', ( #222, #223 ) );
#144 = AXIS2_PLACEMENT_3D( '', #224, #225, #226 );
#145 = EDGE_LOOP( '', ( #227, #228, #229, #230 ) );
#146 = AXIS2_PLACEMENT_3D( '', #231, #232, #233 );
#147 = ORIENTED_EDGE( '', *, *, #234, .F. );
#148 = ORIENTED_EDGE( '', *, *, #235, .T. );
#149 = ORIENTED_EDGE( '', *, *, #236, .T. );
#150 = ORIENTED_EDGE( '', *, *, #237, .F. );
#151 = CARTESIAN_POINT( '', ( 0.000000000000000, 0.000000000000000, -10.0000000000000 ) );
#152 = DIRECTION( '', ( -0.000000000000000, 0.000000000000000, -1.00000000000000 ) );
#153 = DIRECTION( '', ( 1.00000000000000, 0.000000000000000, 0.000000000000000 ) );
#154 = ORIENTED_EDGE( '', *, *, #238, .T. );
#155 = ORIENTED_EDGE( '', *, *, #239, .T. );
#156 = ORIENTED_EDGE( '', *, *, #235, .F. );
#157 = ORIENTED_EDGE( '', *, *, #240, .F. );
#158 = CARTESIAN_POINT( '', ( 0.000000000000000, 0.000000000000000, 0.000000000000000 ) );
#159 = DIRECTION( '', ( 0.000000000000000, 0.000000000000000, 1.00000000000000 ) );
#160 = DIRECTION( '', ( 1.00000000000000, -0.000000000000000, 0.000000000000000 ) );
#161 = ORIENTED_EDGE( '', *, *, #241, .F. );
#162 = ORIENTED_EDGE( '', *, *, #242, .T. );
#163 = ORIENTED_EDGE( '', *, *, #243, .T. );
#164 = ORIENTED_EDGE( '', *, *, #244, .F. );
#165 = CARTESIAN_POINT( '', ( 0.000000000000000, 0.000000000000000, -74.5000000000000 ) );
#166 = DIRECTION( '', ( 0.000000000000000, -0.000000000000000, 1.00000000000000 ) );
#167 = DIRECTION( '', ( -1.00000000000000, -1.22464679915000E-016, 0.000000000000000 ) );
#168 = ORIENTED_EDGE( '', *, *, #243, .F. );
#169 = ORIENTED_EDGE( '', *, *, #245, .T. );
#170 = ORIENTED_EDGE( '', *, *, #241, .T. );
#171 = ORIENTED_EDGE( '', *, *, #246, .F. );
#172 = CARTESIAN_POINT( '', ( 0.000000000000000, 0.000000000000000, -74.5000000000000 ) );
#173 = DIRECTION( '', ( 0.000000000000000, -0.000000000000000, 1.00000000000000 ) );
#174 = DIRECTION( '', ( -1.00000000000000, -1.22464679915000E-016, 0.000000000000000 ) );
#175 = ORIENTED_EDGE( '', *, *, #244, .T. );
#176 = ORIENTED_EDGE( '', *, *, #246, .T. );
#177 = CARTESIAN_POINT( '', ( 0.000000000000000, 0.000000000000000, -87.0000000000000 ) );
#178 = DIRECTION( '', ( 0.000000000000000, 0.000000000000000, -1.00000000000000 ) );
#179 = DIRECTION( '', ( 0.000000000000000, -1.00000000000000, 0.000000000000000 ) );
#180 = ORIENTED_EDGE( '', *, *, #247, .F. );
#181 = ORIENTED_EDGE( '', *, *, #248, .T. );
#182 = ORIENTED_EDGE( '', *, *, #249, .T. );
#183 = ORIENTED_EDGE( '', *, *, #250, .F. );
#184 = CARTESIAN_POINT( '', ( 0.000000000000000, 0.000000000000000, -56.0000000000000 ) );
#185 = DIRECTION( '', ( 0.000000000000000, -0.000000000000000, 1.00000000000000 ) );
#186 = DIRECTION( '', ( -1.00000000000000, -1.45473230946000E-015, 0.000000000000000 ) );
#187 = ORIENTED_EDGE( '', *, *, #245, .F. );
#188 = ORIENTED_EDGE( '', *, *, #242, .F. );
#189 = ORIENTED_EDGE( '', *, *, #251, .T. );
#190 = ORIENTED_EDGE( '', *, *, #250, .T. );
#191 = CARTESIAN_POINT( '', ( 0.000000000000000, 0.000000000000000, -62.0000000000000 ) );
#192 = DIRECTION( '', ( 0.000000000000000, -0.000000000000000, -1.00000000000000 ) );
#193 = DIRECTION( '', ( 0.000000000000000, -1.00000000000000, 0.000000000000000 ) );
#194 = ORIENTED_EDGE( '', *, *, #249, .F. );
#195 = ORIENTED_EDGE( '', *, *, #252, .T. );
#196 = ORIENTED_EDGE( '', *, *, #247, .T. );
#197 = ORIENTED_EDGE( '', *, *, #251, .F. );
#198 = CARTESIAN_POINT( '', ( 0.000000000000000, 0.000000000000000, -56.0000000000000 ) );
#199 = DIRECTION( '', ( 0.000000000000000, -0.000000000000000, 1.00000000000000 ) );
#200 = DIRECTION( '', ( -1.00000000000000, -1.45473230946000E-015, 0.000000000000000 ) );
#201 = ORIENTED_EDGE( '', *, *, #252, .F. );
#202 = ORIENTED_EDGE( '', *, *, #248, .F. );
#203 = ORIENTED_EDGE( '', *, *, #253, .F. );
#204 = ORIENTED_EDGE( '', *, *, #254, .F. );
#205 = CARTESIAN_POINT( '', ( 0.000000000000000, 0.000000000000000, -50.0000000000000 ) );
#206 = DIRECTION( '', ( 0.000000000000000, 0.000000000000000, 1.00000000000000 ) );
#207 = DIRECTION( '', ( 1.00000000000000, -0.000000000000000, 0.000000000000000 ) );
#208 = ORIENTED_EDGE( '', *, *, #253, .T. );
#209 = ORIENTED_EDGE( '', *, *, #255, .F. );
#210 = ORIENTED_EDGE( '', *, *, #238, .F. );
#211 = ORIENTED_EDGE( '', *, *, #256, .T. );
#212 = CARTESIAN_POINT( '', ( 0.000000000000000, 0.000000000000000, -25.0000000000000 ) );
#213 = DIRECTION( '', ( -0.000000000000000, 0.000000000000000, -1.00000000000000 ) );
#214 = DIRECTION( '', ( 1.00000000000000, 0.000000000000000, 0.000000000000000 ) );
#215 = ORIENTED_EDGE( '', *, *, #254, .T. );
#216 = ORIENTED_EDGE( '', *, *, #256, .F. );
#217 = ORIENTED_EDGE( '', *, *, #239, .F. );
#218 = ORIENTED_EDGE( '', *, *, #255, .T. );
#219 = CARTESIAN_POINT( '', ( 0.000000000000000, 0.000000000000000, -25.0000000000000 ) );
#220 = DIRECTION( '', ( -0.000000000000000, 0.000000000000000, -1.00000000000000 ) );
#221 = DIRECTION( '', ( 1.00000000000000, 0.000000000000000, 0.000000000000000 ) );
#222 = ORIENTED_EDGE( '', *, *, #237, .T. );
#223 = ORIENTED_EDGE( '', *, *, #257, .T. );
#224 = CARTESIAN_POINT( '', ( 0.000000000000000, 0.000000000000000, -20.0000000000000 ) );
#225 = DIRECTION( '', ( 0.000000000000000, 0.000000000000000, 1.00000000000000 ) );
#226 = DIRECTION( '', ( 1.00000000000000, -0.000000000000000, 0.000000000000000 ) );
#227 = ORIENTED_EDGE( '', *, *, #236, .F. );
#228 = ORIENTED_EDGE( '', *, *, #240, .T. );
#229 = ORIENTED_EDGE( '', *, *, #234, .T. );
#230 = ORIENTED_EDGE( '', *, *, #257, .F. );
#231 = CARTESIAN_POINT( '', ( 0.000000000000000, 0.000000000000000, -10.0000000000000 ) );
#232 = DIRECTION( '', ( -0.000000000000000, 0.000000000000000, -1.00000000000000 ) );
#233 = DIRECTION( '', ( 1.00000000000000, 0.000000000000000, 0.000000000000000 ) );
#234 = EDGE_CURVE( '', #258, #259, #260, .T. );
#235 = EDGE_CURVE( '', #258, #261, #262, .T. );
#236 = EDGE_CURVE( '', #261, #263, #264, .T. );
#237 = EDGE_CURVE( '', #259, #263, #265, .T. );
#238 = EDGE_CURVE( '', #266, #267, #268, .T. );
#239 = EDGE_CURVE( '', #267, #266, #269, .T. );
#240 = EDGE_CURVE( '', #261, #258, #270, .T. );
#241 = EDGE_CURVE( '', #271, #272, #273, .T. );
#242 = EDGE_CURVE( '', #271, #274, #275, .T. );
#243 = EDGE_CURVE( '', #274, #276, #277, .T. );
#244 = EDGE_CURVE( '', #272, #276, #278, .T. );
#245 = EDGE_CURVE( '', #274, #271, #279, .T. );
#246 = EDGE_CURVE( '', #276, #272, #280, .T. );
#247 = EDGE_CURVE( '', #281, #282, #283, .T. );
#248 = EDGE_CURVE( '', #281, #284, #285, .T. );
#249 = EDGE_CURVE( '', #284, #286, #287, .T. );
#250 = EDGE_CURVE( '', #282, #286, #288, .T. );
#251 = EDGE_CURVE( '', #286, #282, #289, .T. );
#252 = EDGE_CURVE( '', #284, #281, #290, .T. );
#253 = EDGE_CURVE( '', #291, #292, #293, .T. );
#254 = EDGE_CURVE( '', #292, #291, #294, .T. );
#255 = EDGE_CURVE( '', #267, #292, #295, .T. );
#256 = EDGE_CURVE( '', #266, #291, #296, .T. );
#257 = EDGE_CURVE( '', #263, #259, #297, .T. );
#258 = VERTEX_POINT( '', #298 );
#259 = VERTEX_POINT( '', #299 );
#260 = LINE( '', #300, #301 );
#261 = VERTEX_POINT( '', #302 );
#262 = CIRCLE( '', #303, 3.00000000000000 );
#263 = VERTEX_POINT( '', #304 );
#264 = LINE( '', #305, #306 );
#265 = CIRCLE( '', #307, 3.00000000000000 );
#266 = VERTEX_POINT( '', #308 );
#267 = VERTEX_POINT( '', #309 );
#268 = CIRCLE( '', #310, 8.12800000000000 );
#269 = CIRCLE( '', #311, 8.12800000000000 );
#270 = CIRCLE( '', #312, 3.00000000000000 );
#271 = VERTEX_POINT( '', #313 );
#272 = VERTEX_POINT( '', #314 );
#273 = LINE( '', #315, #316 );
#274 = VERTEX_POINT( '', #317 );
#275 = CIRCLE( '', #318, 40.0000000000000 );
#276 = VERTEX_POINT( '', #319 );
#277 = LINE( '', #320, #321 );
#278 = CIRCLE( '', #322, 40.0000000000000 );
#279 = CIRCLE( '', #323, 40.0000000000000 );
#280 = CIRCLE( '', #324, 40.0000000000000 );
#281 = VERTEX_POINT( '', #325 );
#282 = VERTEX_POINT( '', #326 );
#283 = LINE( '', #327, #328 );
#284 = VERTEX_POINT( '', #329 );
#285 = CIRCLE( '', #330, 25.0000000000000 );
#286 = VERTEX_POINT( '', #331 );
#287 = LINE( '', #332, #333 );
#288 = CIRCLE( '', #334, 25.0000000000000 );
#289 = CIRCLE( '', #335, 25.0000000000000 );
#290 = CIRCLE( '', #336, 25.0000000000000 );
#291 = VERTEX_POINT( '', #337 );
#292 = VERTEX_POINT( '', #338 );
#293 = CIRCLE( '', #339, 8.12800000000000 );
#294 = CIRCLE( '', #340, 8.12800000000000 );
#295 = LINE( '', #341, #342 );
#296 = LINE( '', #343, #344 );
#297 = CIRCLE( '', #345, 3.00000000000000 );
#298 = CARTESIAN_POINT( '', ( 3.00000000000000, 0.000000000000000, 0.000000000000000 ) );
#299 = CARTESIAN_POINT( '', ( 3.00000000000000, 0.000000000000000, -20.0000000000000 ) );
#300 = CARTESIAN_POINT( '', ( 3.00000000000000, 0.000000000000000, -10.0000000000000 ) );
#301 = VECTOR( '', #346, 1000.00000000000 );
#302 = CARTESIAN_POINT( '', ( -3.00000000000000, 3.67394039744000E-016, 0.000000000000000 ) );
#303 = AXIS2_PLACEMENT_3D( '', #347, #348, #349 );
#304 = CARTESIAN_POINT( '', ( -3.00000000000000, 3.67394039744000E-016, -20.0000000000000 ) );
#305 = CARTESIAN_POINT( '', ( -3.00000000000000, 3.03192929884000E-015, -10.0000000000000 ) );
#306 = VECTOR( '', #350, 1000.00000000000 );
#307 = AXIS2_PLACEMENT_3D( '', #351, #352, #353 );
#308 = CARTESIAN_POINT( '', ( 8.12800000000000, 0.000000000000000, 0.000000000000000 ) );
#309 = CARTESIAN_POINT( '', ( -8.12800000000000, 9.95392918347000E-016, 0.000000000000000 ) );
#310 = AXIS2_PLACEMENT_3D( '', #354, #355, #356 );
#311 = AXIS2_PLACEMENT_3D( '', #357, #358, #359 );
#312 = AXIS2_PLACEMENT_3D( '', #360, #361, #362 );
#313 = CARTESIAN_POINT( '', ( -40.0000000000000, -4.89858719659000E-015, -62.0000000000000 ) );
#314 = CARTESIAN_POINT( '', ( -40.0000000000000, -4.89858719659000E-015, -87.0000000000000 ) );
#315 = CARTESIAN_POINT( '', ( -40.0000000000000, -4.89858719659000E-015, -74.5000000000000 ) );
#316 = VECTOR( '', #363, 1000.00000000000 );
#317 = CARTESIAN_POINT( '', ( 40.0000000000000, 9.79717439318000E-015, -62.0000000000000 ) );
#318 = AXIS2_PLACEMENT_3D( '', #364, #365, #366 );
#319 = CARTESIAN_POINT( '', ( 40.0000000000000, 9.79717439318000E-015, -87.0000000000000 ) );
#320 = CARTESIAN_POINT( '', ( 40.0000000000000, 9.79717439318000E-015, -74.5000000000000 ) );
#321 = VECTOR( '', #367, 1000.00000000000 );
#322 = AXIS2_PLACEMENT_3D( '', #368, #369, #370 );
#323 = AXIS2_PLACEMENT_3D( '', #371, #372, #373 );
#324 = AXIS2_PLACEMENT_3D( '', #374, #375, #376 );
#325 = CARTESIAN_POINT( '', ( -25.0000000000000, -3.63683077366000E-014, -50.0000000000000 ) );
#326 = CARTESIAN_POINT( '', ( -25.0000000000000, -3.63683077366000E-014, -62.0000000000000 ) );
#327 = CARTESIAN_POINT( '', ( -25.0000000000000, -5.35937719786000E-014, -56.0000000000000 ) );
#328 = VECTOR( '', #377, 1000.00000000000 );
#329 = CARTESIAN_POINT( '', ( 25.0000000000000, 9.49410759657000E-014, -50.0000000000000 ) );
#330 = AXIS2_PLACEMENT_3D( '', #378, #379, #380 );
#331 = CARTESIAN_POINT( '', ( 25.0000000000000, 5.05321549807000E-014, -62.0000000000000 ) );
#332 = CARTESIAN_POINT( '', ( 25.0000000000000, 5.05321549807000E-014, -56.0000000000000 ) );
#333 = VECTOR( '', #381, 1000.00000000000 );
#334 = AXIS2_PLACEMENT_3D( '', #382, #383, #384 );
#335 = AXIS2_PLACEMENT_3D( '', #385, #386, #387 );
#336 = AXIS2_PLACEMENT_3D( '', #388, #389, #390 );
#337 = CARTESIAN_POINT( '', ( 8.12800000000000, 0.000000000000000, -50.0000000000000 ) );
#338 = CARTESIAN_POINT( '', ( -8.12800000000000, 9.95392918347000E-016, -50.0000000000000 ) );
#339 = AXIS2_PLACEMENT_3D( '', #391, #392, #393 );
#340 = AXIS2_PLACEMENT_3D( '', #394, #395, #396 );
#341 = CARTESIAN_POINT( '', ( -8.12800000000000, 9.95392918347000E-016, -25.0000000000000 ) );
#342 = VECTOR( '', #397, 1000.00000000000 );
#343 = CARTESIAN_POINT( '', ( 8.12800000000000, -1.99078583669000E-015, -25.0000000000000 ) );
#344 = VECTOR( '', #398, 1000.00000000000 );
#345 = AXIS2_PLACEMENT_3D( '', #399, #400, #401 );
#346 = DIRECTION( '', ( -0.000000000000000, -0.000000000000000, -1.00000000000000 ) );
#347 = CARTESIAN_POINT( '', ( 0.000000000000000, 0.000000000000000, 0.000000000000000 ) );
#348 = DIRECTION( '', ( 0.000000000000000, 0.000000000000000, 1.00000000000000 ) );
#349 = DIRECTION( '', ( 1.00000000000000, 0.000000000000000, 0.000000000000000 ) );
#350 = DIRECTION( '', ( -0.000000000000000, -0.000000000000000, -1.00000000000000 ) );
#351 = CARTESIAN_POINT( '', ( 0.000000000000000, 0.000000000000000, -20.0000000000000 ) );
#352 = DIRECTION( '', ( 0.000000000000000, 0.000000000000000, 1.00000000000000 ) );
#353 = DIRECTION( '', ( 1.00000000000000, 0.000000000000000, 0.000000000000000 ) );
#354 = CARTESIAN_POINT( '', ( 0.000000000000000, 0.000000000000000, 0.000000000000000 ) );
#355 = DIRECTION( '', ( 0.000000000000000, 0.000000000000000, 1.00000000000000 ) );
#356 = DIRECTION( '', ( 1.00000000000000, 0.000000000000000, 0.000000000000000 ) );
#357 = CARTESIAN_POINT( '', ( 0.000000000000000, 0.000000000000000, 0.000000000000000 ) );
#358 = DIRECTION( '', ( 0.000000000000000, 0.000000000000000, 1.00000000000000 ) );
#359 = DIRECTION( '', ( 1.00000000000000, 0.000000000000000, 0.000000000000000 ) );
#360 = CARTESIAN_POINT( '', ( 0.000000000000000, 0.000000000000000, 0.000000000000000 ) );
#361 = DIRECTION( '', ( 0.000000000000000, 0.000000000000000, 1.00000000000000 ) );
#362 = DIRECTION( '', ( 1.00000000000000, 0.000000000000000, 0.000000000000000 ) );
#363 = DIRECTION( '', ( 0.000000000000000, 0.000000000000000, -1.00000000000000 ) );
#364 = CARTESIAN_POINT( '', ( 0.000000000000000, 0.000000000000000, -62.0000000000000 ) );
#365 = DIRECTION( '', ( 0.000000000000000, 0.000000000000000, -1.00000000000000 ) );
#366 = DIRECTION( '', ( 1.00000000000000, 0.000000000000000, 0.000000000000000 ) );
#367 = DIRECTION( '', ( 0.000000000000000, 0.000000000000000, -1.00000000000000 ) );
#368 = CARTESIAN_POINT( '', ( 0.000000000000000, 0.000000000000000, -87.0000000000000 ) );
#369 = DIRECTION( '', ( 0.000000000000000, 0.000000000000000, -1.00000000000000 ) );
#370 = DIRECTION( '', ( 1.00000000000000, 0.000000000000000, 0.000000000000000 ) );
#371 = CARTESIAN_POINT( '', ( 0.000000000000000, 0.000000000000000, -62.0000000000000 ) );
#372 = DIRECTION( '', ( 0.000000000000000, 0.000000000000000, -1.00000000000000 ) );
#373 = DIRECTION( '', ( 1.00000000000000, 0.000000000000000, 0.000000000000000 ) );
#374 = CARTESIAN_POINT( '', ( 0.000000000000000, 0.000000000000000, -87.0000000000000 ) );
#375 = DIRECTION( '', ( 0.000000000000000, 0.000000000000000, -1.00000000000000 ) );
#376 = DIRECTION( '', ( 1.00000000000000, 0.000000000000000, 0.000000000000000 ) );
#377 = DIRECTION( '', ( 0.000000000000000, 0.000000000000000, -1.00000000000000 ) );
#378 = CARTESIAN_POINT( '', ( 0.000000000000000, 0.000000000000000, -50.0000000000000 ) );
#379 = DIRECTION( '', ( 0.000000000000000, 0.000000000000000, -1.00000000000000 ) );
#380 = DIRECTION( '', ( 1.00000000000000, 0.000000000000000, 0.000000000000000 ) );
#381 = DIRECTION( '', ( 0.000000000000000, 0.000000000000000, -1.00000000000000 ) );
#382 = CARTESIAN_POINT( '', ( 0.000000000000000, 0.000000000000000, -62.0000000000000 ) );
#383 = DIRECTION( '', ( 0.000000000000000, 0.000000000000000, -1.00000000000000 ) );
#384 = DIRECTION( '', ( 1.00000000000000, 0.000000000000000, 0.000000000000000 ) );
#385 = CARTESIAN_POINT( '', ( 0.000000000000000, 0.000000000000000, -62.0000000000000 ) );
#386 = DIRECTION( '', ( 0.000000000000000, 0.000000000000000, -1.00000000000000 ) );
#387 = DIRECTION( '', ( 1.00000000000000, 0.000000000000000, 0.000000000000000 ) );
#388 = CARTESIAN_POINT( '', ( 0.000000000000000, 0.000000000000000, -50.0000000000000 ) );
#389 = DIRECTION( '', ( 0.000000000000000, 0.000000000000000, -1.00000000000000 ) );
#390 = DIRECTION( '', ( 1.00000000000000, 0.000000000000000, 0.000000000000000 ) );
#391 = CARTESIAN_POINT( '', ( 0.000000000000000, 0.000000000000000, -50.0000000000000 ) );
#392 = DIRECTION( '', ( 0.000000000000000, 0.000000000000000, 1.00000000000000 ) );
#393 = DIRECTION( '', ( 1.00000000000000, 0.000000000000000, 0.000000000000000 ) );
#394 = CARTESIAN_POINT( '', ( 0.000000000000000, 0.000000000000000, -50.0000000000000 ) );
#395 = DIRECTION( '', ( 0.000000000000000, 0.000000000000000, 1.00000000000000 ) );
#396 = DIRECTION( '', ( 1.00000000000000, 0.000000000000000, 0.000000000000000 ) );
#397 = DIRECTION( '', ( -0.000000000000000, -0.000000000000000, -1.00000000000000 ) );
#398 = DIRECTION( '', ( -0.000000000000000, -0.000000000000000, -1.00000000000000 ) );
#399 = CARTESIAN_POINT( '', ( 0.000000000000000, 0.000000000000000, -20.0000000000000 ) );
#400 = DIRECTION( '', ( 0.000000000000000, 0.000000000000000, 1.00000000000000 ) );
#401 = DIRECTION( '', ( 1.00000000000000, 0.000000000000000, 0.000000000000000 ) );
ENDSEC;
END-ISO-10303-21;
