ISO-10303-21;
HEADER;
FILE_DESCRIPTION (( 'STEP AP203' ),
    '1' );
FILE_NAME ('Bague déco.STEP',
    '2024-04-30T09:37:45',
    ( '' ),
    ( '' ),
    'SwSTEP 2.0',
    'SolidWorks 2024',
    '' );
FILE_SCHEMA (( 'CONFIG_CONTROL_DESIGN' ));
ENDSEC;

DATA;
#1 = EDGE_CURVE ( 'NONE', #70, #99, #30, .T. ) ;
#2 = ORIENTED_EDGE ( 'NONE', *, *, #183, .F. ) ;
#3 = ORIENTED_EDGE ( 'NONE', *, *, #225, .F. ) ;
#4 = CARTESIAN_POINT ( 'NONE',  ( 14.50000000000000000, 0.000000000000000000, 0.000000000000000000 ) ) ;
#5 = PRODUCT_RELATED_PRODUCT_CATEGORY ( 'detail', '', ( #124 ) ) ;
#6 = DATE_AND_TIME ( #34, #41 ) ;
#7 = DIRECTION ( 'NONE',  ( 1.000000000000000000, 0.000000000000000000, 0.000000000000000000 ) ) ;
#8 = EDGE_CURVE ( 'NONE', #187, #195, #109, .T. ) ;
#9 = ORIENTED_EDGE ( 'NONE', *, *, #228, .T. ) ;
#10 = ORIENTED_EDGE ( 'NONE', *, *, #147, .F. ) ;
#11 = DIRECTION ( 'NONE',  ( 1.000000000000000000, 0.000000000000000000, -0.000000000000000000 ) ) ;
#12 = APPROVAL_DATE_TIME ( #189, #132 ) ;
#13 = CARTESIAN_POINT ( 'NONE',  ( 0.000000000000000000, 0.000000000000000000, 0.000000000000000000 ) ) ;
#14 = DATE_AND_TIME ( #19, #186 ) ;
#15 = CC_DESIGN_SECURITY_CLASSIFICATION ( #165, ( #31 ) ) ;
#16 = PERSON_AND_ORGANIZATION_ROLE ( 'design_owner' ) ;
#17 = DIRECTION ( 'NONE',  ( 0.000000000000000000, 0.000000000000000000, 1.000000000000000000 ) ) ;
#18 = DIRECTION ( 'NONE',  ( 1.000000000000000000, 0.000000000000000000, 0.000000000000000000 ) ) ;
#19 = CALENDAR_DATE ( 2024, 30, 4 ) ;
#20 = CARTESIAN_POINT ( 'NONE',  ( 15.00000000000000000, 1.836970198721029589E-15, 5.000000000000000000 ) ) ;
#21 = CIRCLE ( 'NONE', #75, 15.00000000000000000 ) ;
#22 = DIRECTION ( 'NONE',  ( 1.000000000000000000, 0.000000000000000000, 0.000000000000000000 ) ) ;
#23 = EDGE_LOOP ( 'NONE', ( #48, #3 ) ) ;
#24 = CYLINDRICAL_SURFACE ( 'NONE', #87, 15.00000000000000000 ) ;
#25 = COORDINATED_UNIVERSAL_TIME_OFFSET ( 1, 0, .AHEAD. ) ;
#26 = ORIENTED_EDGE ( 'NONE', *, *, #106, .T. ) ;
#27 = PRODUCT_DEFINITION ( 'UNKNOWN', '', #31, #55 ) ;
#28 = DIRECTION ( 'NONE',  ( -0.000000000000000000, -0.000000000000000000, -1.000000000000000000 ) ) ;
#29 = VECTOR ( 'NONE', #91, 1000.000000000000000 ) ;
#30 = CIRCLE ( 'NONE', #85, 14.50000000000000000 ) ;
#31 = PRODUCT_DEFINITION_FORMATION_WITH_SPECIFIED_SOURCE ( 'ANY', '', #124, .NOT_KNOWN. ) ;
#32 = ORIENTED_EDGE ( 'NONE', *, *, #51, .F. ) ;
#33 = AXIS2_PLACEMENT_3D ( 'NONE', #133, #131, #222 ) ;
#34 = CALENDAR_DATE ( 2024, 30, 4 ) ;
#35 = ORIENTED_EDGE ( 'NONE', *, *, #51, .T. ) ;
#36 = DIRECTION ( 'NONE',  ( 0.000000000000000000, 0.000000000000000000, 1.000000000000000000 ) ) ;
#37 =( NAMED_UNIT ( * ) PLANE_ANGLE_UNIT ( ) SI_UNIT ( $, .RADIAN. ) );
#38 = PERSON ( 'UNSPECIFIED', 'UNSPECIFIED', 'UNSPECIFIED', ('UNSPECIFIED'), ('UNSPECIFIED'), ('UNSPECIFIED') ) ;
#39 = CARTESIAN_POINT ( 'NONE',  ( -15.00000000000000000, 0.000000000000000000, 0.000000000000000000 ) ) ;
#40 = CIRCLE ( 'NONE', #96, 14.50000000000000000 ) ;
#41 = LOCAL_TIME ( 11, 37, 45.00000000000000000, #157 ) ;
#42 = APPROVAL ( #197, 'UNSPECIFIED' ) ;
#43 = ORIENTED_EDGE ( 'NONE', *, *, #100, .F. ) ;
#44 = CARTESIAN_POINT ( 'NONE',  ( 0.000000000000000000, 0.000000000000000000, 0.000000000000000000 ) ) ;
#45 = AXIS2_PLACEMENT_3D ( 'NONE', #227, #62, #119 ) ;
#46 = ORIENTED_EDGE ( 'NONE', *, *, #209, .F. ) ;
#47 = PERSON_AND_ORGANIZATION_ROLE ( 'creator' ) ;
#48 = ORIENTED_EDGE ( 'NONE', *, *, #8, .F. ) ;
#49 = CYLINDRICAL_SURFACE ( 'NONE', #33, 14.50000000000000000 ) ;
#50 = APPROVAL_ROLE ( '' ) ;
#51 = EDGE_CURVE ( 'NONE', #149, #195, #206, .T. ) ;
#52 = CARTESIAN_POINT ( 'NONE',  ( 14.50000000000000000, 0.000000000000000000, 5.000000000000000000 ) ) ;
#53 = EDGE_CURVE ( 'NONE', #130, #70, #103, .T. ) ;
#54 = ORIENTED_EDGE ( 'NONE', *, *, #183, .T. ) ;
#55 = DESIGN_CONTEXT ( 'detailed design', #240, 'design' ) ;
#56 = DIRECTION ( 'NONE',  ( 0.000000000000000000, 0.000000000000000000, 1.000000000000000000 ) ) ;
#57 = ORIENTED_EDGE ( 'NONE', *, *, #53, .F. ) ;
#58 = PERSON_AND_ORGANIZATION ( #38, #235 ) ;
#59 = LOCAL_TIME ( 11, 37, 45.00000000000000000, #200 ) ;
#60 = ADVANCED_FACE ( 'NONE', ( #64, #144 ), #83, .F. ) ;
#61 = CARTESIAN_POINT ( 'NONE',  ( 14.50000000000000000, 0.000000000000000000, 0.000000000000000000 ) ) ;
#62 = DIRECTION ( 'NONE',  ( 0.000000000000000000, 0.000000000000000000, 1.000000000000000000 ) ) ;
#63 = DIRECTION ( 'NONE',  ( 0.000000000000000000, 0.000000000000000000, 1.000000000000000000 ) ) ;
#64 = FACE_BOUND ( 'NONE', #204, .T. ) ;
#65 = LINE ( 'NONE', #143, #67 ) ;
#66 = CARTESIAN_POINT ( 'NONE',  ( 0.000000000000000000, 0.000000000000000000, 5.000000000000000000 ) ) ;
#67 = VECTOR ( 'NONE', #231, 1000.000000000000000 ) ;
#68 = SECURITY_CLASSIFICATION_LEVEL ( 'unclassified' ) ;
#69 = APPROVAL_ROLE ( '' ) ;
#70 = VERTEX_POINT ( 'NONE', #156 ) ;
#71 = CARTESIAN_POINT ( 'NONE',  ( 0.000000000000000000, 0.000000000000000000, 5.000000000000000000 ) ) ;
#72 = APPROVAL_DATE_TIME ( #233, #42 ) ;
#73 = ORIENTED_EDGE ( 'NONE', *, *, #106, .F. ) ;
#74 = CARTESIAN_POINT ( 'NONE',  ( 0.000000000000000000, 0.000000000000000000, 5.000000000000000000 ) ) ;
#75 = AXIS2_PLACEMENT_3D ( 'NONE', #176, #17, #18 ) ;
#76 = SHAPE_DEFINITION_REPRESENTATION ( #152, #216 ) ;
#77 = ORIENTED_EDGE ( 'NONE', *, *, #220, .T. ) ;
#78 = APPLICATION_PROTOCOL_DEFINITION ( 'international standard', 'config_control_design', 1994, #240 ) ;
#79 = DATE_TIME_ROLE ( 'classification_date' ) ;
#80 = AXIS2_PLACEMENT_3D ( 'NONE', #66, #121, #145 ) ;
#81 = APPROVAL_PERSON_ORGANIZATION ( #137, #237, #69 ) ;
#82 = MECHANICAL_CONTEXT ( 'NONE', #210, 'mechanical' ) ;
#83 = PLANE ( 'NONE',  #45 ) ;
#84 = PLANE ( 'NONE',  #98 ) ;
#85 = AXIS2_PLACEMENT_3D ( 'NONE', #239, #97, #171 ) ;
#86 = ADVANCED_FACE ( 'NONE', ( #219 ), #49, .F. ) ;
#87 = AXIS2_PLACEMENT_3D ( 'NONE', #71, #154, #214 ) ;
#88 = AXIS2_PLACEMENT_3D ( 'NONE', #13, #226, #208 ) ;
#89 = APPLICATION_PROTOCOL_DEFINITION ( 'international standard', 'config_control_design', 1994, #210 ) ;
#90 = ORIENTED_EDGE ( 'NONE', *, *, #8, .T. ) ;
#91 = DIRECTION ( 'NONE',  ( -0.000000000000000000, -0.000000000000000000, 1.000000000000000000 ) ) ;
#92 = CLOSED_SHELL ( 'NONE', ( #86, #148, #95, #230, #60, #243 ) ) ;
#93 = APPROVAL_PERSON_ORGANIZATION ( #170, #42, #50 ) ;
#94 = CARTESIAN_POINT ( 'NONE',  ( 0.000000000000000000, 0.000000000000000000, 5.000000000000000000 ) ) ;
#95 = ADVANCED_FACE ( 'NONE', ( #198 ), #24, .T. ) ;
#96 = AXIS2_PLACEMENT_3D ( 'NONE', #44, #126, #22 ) ;
#97 = DIRECTION ( 'NONE',  ( 0.000000000000000000, 0.000000000000000000, 1.000000000000000000 ) ) ;
#98 = AXIS2_PLACEMENT_3D ( 'NONE', #163, #63, #11 ) ;
#99 = VERTEX_POINT ( 'NONE', #52 ) ;
#100 = EDGE_CURVE ( 'NONE', #128, #149, #202, .T. ) ;
#101 = ORIENTED_EDGE ( 'NONE', *, *, #220, .F. ) ;
#102 =( NAMED_UNIT ( * ) SI_UNIT ( $, .STERADIAN. ) SOLID_ANGLE_UNIT ( ) );
#103 = LINE ( 'NONE', #247, #215 ) ;
#104 = FACE_BOUND ( 'NONE', #172, .T. ) ;
#105 = LOCAL_TIME ( 11, 37, 45.00000000000000000, #25 ) ;
#106 = EDGE_CURVE ( 'NONE', #234, #130, #40, .T. ) ;
#107 = CARTESIAN_POINT ( 'NONE',  ( 0.000000000000000000, 0.000000000000000000, 0.000000000000000000 ) ) ;
#108 = AXIS2_PLACEMENT_3D ( 'NONE', #74, #28, #174 ) ;
#109 = CIRCLE ( 'NONE', #211, 15.00000000000000000 ) ;
#110 = DIRECTION ( 'NONE',  ( 1.000000000000000000, 0.000000000000000000, 0.000000000000000000 ) ) ;
#111 = CC_DESIGN_DATE_AND_TIME_ASSIGNMENT ( #6, #79, ( #165 ) ) ;
#112 = EDGE_LOOP ( 'NONE', ( #166, #179 ) ) ;
#113 = PERSON_AND_ORGANIZATION ( #38, #235 ) ;
#114 = LINE ( 'NONE', #4, #29 ) ;
#115 = CARTESIAN_POINT ( 'NONE',  ( -15.00000000000000000, 0.000000000000000000, 5.000000000000000000 ) ) ;
#116 = CC_DESIGN_PERSON_AND_ORGANIZATION_ASSIGNMENT ( #58, #138, ( #165 ) ) ;
#117 = EDGE_LOOP ( 'NONE', ( #46, #35, #196, #2 ) ) ;
#118 = UNCERTAINTY_MEASURE_WITH_UNIT (LENGTH_MEASURE( 1.000000000000000082E-05 ), #245, 'distance_accuracy_value', 'NONE');
#119 = DIRECTION ( 'NONE',  ( 1.000000000000000000, 0.000000000000000000, -0.000000000000000000 ) ) ;
#120 = AXIS2_PLACEMENT_3D ( 'NONE', #177, #190, #248 ) ;
#121 = DIRECTION ( 'NONE',  ( 0.000000000000000000, 0.000000000000000000, 1.000000000000000000 ) ) ;
#122 = AXIS2_PLACEMENT_3D ( 'NONE', #94, #218, #151 ) ;
#123 = CC_DESIGN_PERSON_AND_ORGANIZATION_ASSIGNMENT ( #191, #16, ( #124 ) ) ;
#124 = PRODUCT ( 'Bague d\X2\00e9\X0\co', 'Bague d\X2\00e9\X0\co', '', ( #82 ) ) ;
#125 = PERSON_AND_ORGANIZATION_ROLE ( 'design_supplier' ) ;
#126 = DIRECTION ( 'NONE',  ( 0.000000000000000000, 0.000000000000000000, 1.000000000000000000 ) ) ;
#127 = CC_DESIGN_APPROVAL ( #42, ( #31 ) ) ;
#128 = VERTEX_POINT ( 'NONE', #115 ) ;
#129 = CARTESIAN_POINT ( 'NONE',  ( -14.50000000000000000, 1.775737858763662015E-15, 0.000000000000000000 ) ) ;
#130 = VERTEX_POINT ( 'NONE', #129 ) ;
#131 = DIRECTION ( 'NONE',  ( -0.000000000000000000, -0.000000000000000000, 1.000000000000000000 ) ) ;
#132 = APPROVAL ( #173, 'UNSPECIFIED' ) ;
#133 = CARTESIAN_POINT ( 'NONE',  ( 0.000000000000000000, 0.000000000000000000, 0.000000000000000000 ) ) ;
#134 = CC_DESIGN_APPROVAL ( #237, ( #165 ) ) ;
#135 = PERSON_AND_ORGANIZATION_ROLE ( 'creator' ) ;
#136 = PERSON_AND_ORGANIZATION ( #38, #235 ) ;
#137 = PERSON_AND_ORGANIZATION ( #38, #235 ) ;
#138 = PERSON_AND_ORGANIZATION_ROLE ( 'classification_officer' ) ;
#139 = CALENDAR_DATE ( 2024, 30, 4 ) ;
#140 = CC_DESIGN_DATE_AND_TIME_ASSIGNMENT ( #238, #184, ( #27 ) ) ;
#141 = CYLINDRICAL_SURFACE ( 'NONE', #88, 14.50000000000000000 ) ;
#142 = CIRCLE ( 'NONE', #221, 14.50000000000000000 ) ;
#143 = CARTESIAN_POINT ( 'NONE',  ( -15.00000000000000000, 0.000000000000000000, 5.000000000000000000 ) ) ;
#144 = FACE_OUTER_BOUND ( 'NONE', #23, .T. ) ;
#145 = DIRECTION ( 'NONE',  ( 1.000000000000000000, 0.000000000000000000, 0.000000000000000000 ) ) ;
#146 = CC_DESIGN_APPROVAL ( #132, ( #27 ) ) ;
#147 = EDGE_CURVE ( 'NONE', #234, #99, #114, .T. ) ;
#148 = ADVANCED_FACE ( 'NONE', ( #167 ), #236, .T. ) ;
#149 = VERTEX_POINT ( 'NONE', #20 ) ;
#150 = COORDINATED_UNIVERSAL_TIME_OFFSET ( 1, 0, .AHEAD. ) ;
#151 = DIRECTION ( 'NONE',  ( 1.000000000000000000, 0.000000000000000000, 0.000000000000000000 ) ) ;
#152 = PRODUCT_DEFINITION_SHAPE ( 'NONE', 'NONE',  #27 ) ;
#153 = VECTOR ( 'NONE', #175, 1000.000000000000000 ) ;
#154 = DIRECTION ( 'NONE',  ( -0.000000000000000000, -0.000000000000000000, -1.000000000000000000 ) ) ;
#155 = ORIENTED_EDGE ( 'NONE', *, *, #1, .T. ) ;
#156 = CARTESIAN_POINT ( 'NONE',  ( -14.50000000000000000, 1.775737858763662015E-15, 5.000000000000000000 ) ) ;
#157 = COORDINATED_UNIVERSAL_TIME_OFFSET ( 1, 0, .AHEAD. ) ;
#158 = EDGE_LOOP ( 'NONE', ( #232, #213, #155, #10 ) ) ;
#159 = PERSON_AND_ORGANIZATION ( #38, #235 ) ;
#160 = CIRCLE ( 'NONE', #120, 14.50000000000000000 ) ;
#161 = COORDINATED_UNIVERSAL_TIME_OFFSET ( 1, 0, .AHEAD. ) ;
#162 = CC_DESIGN_PERSON_AND_ORGANIZATION_ASSIGNMENT ( #113, #125, ( #31 ) ) ;
#163 = CARTESIAN_POINT ( 'NONE',  ( 0.000000000000000000, 0.000000000000000000, 5.000000000000000000 ) ) ;
#164 = DIRECTION ( 'NONE',  ( -0.000000000000000000, -0.000000000000000000, 1.000000000000000000 ) ) ;
#165 = SECURITY_CLASSIFICATION ( '', '', #68 ) ;
#166 = ORIENTED_EDGE ( 'NONE', *, *, #100, .T. ) ;
#167 = FACE_OUTER_BOUND ( 'NONE', #117, .T. ) ;
#168 = LOCAL_TIME ( 11, 37, 45.00000000000000000, #161 ) ;
#169 = APPROVAL_PERSON_ORGANIZATION ( #159, #132, #241 ) ;
#170 = PERSON_AND_ORGANIZATION ( #38, #235 ) ;
#171 = DIRECTION ( 'NONE',  ( 1.000000000000000000, 0.000000000000000000, 0.000000000000000000 ) ) ;
#172 = EDGE_LOOP ( 'NONE', ( #101, #180 ) ) ;
#173 = APPROVAL_STATUS ( 'not_yet_approved' ) ;
#174 = DIRECTION ( 'NONE',  ( -1.000000000000000000, 0.000000000000000000, 0.000000000000000000 ) ) ;
#175 = DIRECTION ( 'NONE',  ( -0.000000000000000000, -0.000000000000000000, -1.000000000000000000 ) ) ;
#176 = CARTESIAN_POINT ( 'NONE',  ( 0.000000000000000000, 0.000000000000000000, 0.000000000000000000 ) ) ;
#177 = CARTESIAN_POINT ( 'NONE',  ( 0.000000000000000000, 0.000000000000000000, 0.000000000000000000 ) ) ;
#178 = CC_DESIGN_PERSON_AND_ORGANIZATION_ASSIGNMENT ( #136, #135, ( #27 ) ) ;
#179 = ORIENTED_EDGE ( 'NONE', *, *, #209, .T. ) ;
#180 = ORIENTED_EDGE ( 'NONE', *, *, #1, .F. ) ;
#181 = MANIFOLD_SOLID_BREP ( 'Enlèv. mat.-Extru.1', #92 ) ;
#182 = CALENDAR_DATE ( 2024, 30, 4 ) ;
#183 = EDGE_CURVE ( 'NONE', #128, #187, #65, .T. ) ;
#184 = DATE_TIME_ROLE ( 'creation_date' ) ;
#185 = ORIENTED_EDGE ( 'NONE', *, *, #147, .T. ) ;
#186 = LOCAL_TIME ( 11, 37, 45.00000000000000000, #150 ) ;
#187 = VERTEX_POINT ( 'NONE', #39 ) ;
#188 = CALENDAR_DATE ( 2024, 30, 4 ) ;
#189 = DATE_AND_TIME ( #139, #168 ) ;
#190 = DIRECTION ( 'NONE',  ( 0.000000000000000000, 0.000000000000000000, 1.000000000000000000 ) ) ;
#191 = PERSON_AND_ORGANIZATION ( #38, #235 ) ;
#192 = CARTESIAN_POINT ( 'NONE',  ( 15.00000000000000000, 1.836970198721029589E-15, 5.000000000000000000 ) ) ;
#193 = CARTESIAN_POINT ( 'NONE',  ( 0.000000000000000000, 0.000000000000000000, 5.000000000000000000 ) ) ;
#194 = CC_DESIGN_PERSON_AND_ORGANIZATION_ASSIGNMENT ( #217, #47, ( #31 ) ) ;
#195 = VERTEX_POINT ( 'NONE', #229 ) ;
#196 = ORIENTED_EDGE ( 'NONE', *, *, #225, .T. ) ;
#197 = APPROVAL_STATUS ( 'not_yet_approved' ) ;
#198 = FACE_OUTER_BOUND ( 'NONE', #223, .T. ) ;
#199 =( GEOMETRIC_REPRESENTATION_CONTEXT ( 3 ) GLOBAL_UNCERTAINTY_ASSIGNED_CONTEXT ( ( #118 ) ) GLOBAL_UNIT_ASSIGNED_CONTEXT ( ( #245, #37, #102 ) ) REPRESENTATION_CONTEXT ( 'NONE', 'WORKASPACE' ) );
#200 = COORDINATED_UNIVERSAL_TIME_OFFSET ( 1, 0, .AHEAD. ) ;
#201 = EDGE_LOOP ( 'NONE', ( #57, #73, #185, #77 ) ) ;
#202 = CIRCLE ( 'NONE', #122, 15.00000000000000000 ) ;
#203 = AXIS2_PLACEMENT_3D ( 'NONE', #224, #56, #7 ) ;
#204 = EDGE_LOOP ( 'NONE', ( #26, #9 ) ) ;
#205 = DIRECTION ( 'NONE',  ( 1.000000000000000000, 0.000000000000000000, 0.000000000000000000 ) ) ;
#206 = LINE ( 'NONE', #192, #153 ) ;
#207 = DIRECTION ( 'NONE',  ( 0.000000000000000000, 0.000000000000000000, 1.000000000000000000 ) ) ;
#208 = DIRECTION ( 'NONE',  ( 1.000000000000000000, 0.000000000000000000, 0.000000000000000000 ) ) ;
#209 = EDGE_CURVE ( 'NONE', #149, #128, #249, .T. ) ;
#210 = APPLICATION_CONTEXT ( 'configuration controlled 3d designs of mechanical parts and assemblies' ) ;
#211 = AXIS2_PLACEMENT_3D ( 'NONE', #107, #36, #205 ) ;
#212 = APPROVAL_STATUS ( 'not_yet_approved' ) ;
#213 = ORIENTED_EDGE ( 'NONE', *, *, #53, .T. ) ;
#214 = DIRECTION ( 'NONE',  ( -1.000000000000000000, 0.000000000000000000, 0.000000000000000000 ) ) ;
#215 = VECTOR ( 'NONE', #164, 1000.000000000000000 ) ;
#216 = ADVANCED_BREP_SHAPE_REPRESENTATION ( 'Bague d\X2\00e9\X0\co', ( #181, #203 ), #199 ) ;
#217 = PERSON_AND_ORGANIZATION ( #38, #235 ) ;
#218 = DIRECTION ( 'NONE',  ( 0.000000000000000000, 0.000000000000000000, 1.000000000000000000 ) ) ;
#219 = FACE_OUTER_BOUND ( 'NONE', #158, .T. ) ;
#220 = EDGE_CURVE ( 'NONE', #99, #70, #142, .T. ) ;
#221 = AXIS2_PLACEMENT_3D ( 'NONE', #193, #207, #110 ) ;
#222 = DIRECTION ( 'NONE',  ( 1.000000000000000000, 0.000000000000000000, 0.000000000000000000 ) ) ;
#223 = EDGE_LOOP ( 'NONE', ( #32, #43, #54, #90 ) ) ;
#224 = CARTESIAN_POINT ( 'NONE',  ( 0.000000000000000000, 0.000000000000000000, 0.000000000000000000 ) ) ;
#225 = EDGE_CURVE ( 'NONE', #195, #187, #21, .T. ) ;
#226 = DIRECTION ( 'NONE',  ( -0.000000000000000000, -0.000000000000000000, 1.000000000000000000 ) ) ;
#227 = CARTESIAN_POINT ( 'NONE',  ( 0.000000000000000000, 0.000000000000000000, 0.000000000000000000 ) ) ;
#228 = EDGE_CURVE ( 'NONE', #130, #234, #160, .T. ) ;
#229 = CARTESIAN_POINT ( 'NONE',  ( 15.00000000000000000, 1.836970198721029589E-15, 0.000000000000000000 ) ) ;
#230 = ADVANCED_FACE ( 'NONE', ( #104, #244 ), #84, .T. ) ;
#231 = DIRECTION ( 'NONE',  ( -0.000000000000000000, -0.000000000000000000, -1.000000000000000000 ) ) ;
#232 = ORIENTED_EDGE ( 'NONE', *, *, #228, .F. ) ;
#233 = DATE_AND_TIME ( #182, #105 ) ;
#234 = VERTEX_POINT ( 'NONE', #61 ) ;
#235 = ORGANIZATION ( 'UNSPECIFIED', 'UNSPECIFIED', '' ) ;
#236 = CYLINDRICAL_SURFACE ( 'NONE', #108, 15.00000000000000000 ) ;
#237 = APPROVAL ( #212, 'UNSPECIFIED' ) ;
#238 = DATE_AND_TIME ( #188, #59 ) ;
#239 = CARTESIAN_POINT ( 'NONE',  ( 0.000000000000000000, 0.000000000000000000, 5.000000000000000000 ) ) ;
#240 = APPLICATION_CONTEXT ( 'configuration controlled 3d designs of mechanical parts and assemblies' ) ;
#241 = APPROVAL_ROLE ( '' ) ;
#242 = FACE_OUTER_BOUND ( 'NONE', #201, .T. ) ;
#243 = ADVANCED_FACE ( 'NONE', ( #242 ), #141, .F. ) ;
#244 = FACE_OUTER_BOUND ( 'NONE', #112, .T. ) ;
#245 =( LENGTH_UNIT ( ) NAMED_UNIT ( * ) SI_UNIT ( .MILLI., .METRE. ) );
#246 = APPROVAL_DATE_TIME ( #14, #237 ) ;
#247 = CARTESIAN_POINT ( 'NONE',  ( -14.50000000000000000, 1.775737858763662015E-15, 0.000000000000000000 ) ) ;
#248 = DIRECTION ( 'NONE',  ( 1.000000000000000000, 0.000000000000000000, 0.000000000000000000 ) ) ;
#249 = CIRCLE ( 'NONE', #80, 15.00000000000000000 ) ;
ENDSEC;
END-ISO-10303-21;
