ISO-10303-21;
HEADER;
FILE_DESCRIPTION (( 'STEP AP214' ),
    '1' );
FILE_NAME ('ZTK_PART_ENTRETOISE SPRM DIA10.STEP',
    '2024-04-23T13:51:46',
    ( '' ),
    ( '' ),
    'SwSTEP 2.0',
    'SolidWorks 2024',
    '' );
FILE_SCHEMA (( 'AUTOMOTIVE_DESIGN' ));
ENDSEC;

DATA;
#1 = EDGE_CURVE ( 'NONE', #62, #388, #14, .T. ) ;
#2 = CARTESIAN_POINT ( 'NONE',  ( 0.000000000000000000, 0.000000000000000000, 0.2000000000000022593 ) ) ;
#3 = VECTOR ( 'NONE', #178, 1000.000000000000114 ) ;
#4 = VECTOR ( 'NONE', #380, 1000.000000000000000 ) ;
#5 = CYLINDRICAL_SURFACE ( 'NONE', #167, 5.099999999999999645 ) ;
#6 = CARTESIAN_POINT ( 'NONE',  ( 0.000000000000000000, 0.000000000000000000, 6.400000000000000355 ) ) ;
#7 = LINE ( 'NONE', #129, #275 ) ;
#8 = LINE ( 'NONE', #373, #296 ) ;
#9 = CARTESIAN_POINT ( 'NONE',  ( 6.800000000000002487, 0.000000000000000000, 0.000000000000000000 ) ) ;
#10 = FACE_OUTER_BOUND ( 'NONE', #203, .T. ) ;
#11 = ADVANCED_FACE ( 'NONE', ( #12 ), #386, .F. ) ;
#12 = FACE_OUTER_BOUND ( 'NONE', #263, .T. ) ;
#13 = CARTESIAN_POINT ( 'NONE',  ( 7.000000000000000000, 8.572527594031473190E-16, 6.400000000000000355 ) ) ;
#14 = LINE ( 'NONE', #362, #63 ) ;
#15 = DIRECTION ( 'NONE',  ( -1.000000000000000000, 0.000000000000000000, 0.000000000000000000 ) ) ;
#16 = LINE ( 'NONE', #83, #268 ) ;
#17 = EDGE_CURVE ( 'NONE', #27, #266, #16, .T. ) ;
#18 = APPLICATION_PROTOCOL_DEFINITION ( 'draft international standard', 'automotive_design', 1998, #315 ) ;
#19 = VERTEX_POINT ( 'NONE', #301 ) ;
#20 = AXIS2_PLACEMENT_3D ( 'NONE', #273, #56, #242 ) ;
#21 = ORIENTED_EDGE ( 'NONE', *, *, #358, .T. ) ;
#22 = ORIENTED_EDGE ( 'NONE', *, *, #188, .F. ) ;
#23 = FACE_OUTER_BOUND ( 'NONE', #395, .T. ) ;
#24 = ADVANCED_BREP_SHAPE_REPRESENTATION ( 'ZTK_PART_ENTRETOISE SPRM DIA10', ( #180, #303 ), #49 ) ;
#25 = VERTEX_POINT ( 'NONE', #334 ) ;
#26 = FACE_OUTER_BOUND ( 'NONE', #91, .T. ) ;
#27 = VERTEX_POINT ( 'NONE', #365 ) ;
#28 = AXIS2_PLACEMENT_3D ( 'NONE', #342, #307, #249 ) ;
#29 = DIRECTION ( 'NONE',  ( 0.7071067811865505703, 0.000000000000000000, 0.7071067811865444641 ) ) ;
#30 = CIRCLE ( 'NONE', #336, 7.000000000000000000 ) ;
#31 = ORIENTED_EDGE ( 'NONE', *, *, #139, .T. ) ;
#32 = DIRECTION ( 'NONE',  ( 1.000000000000000000, 0.000000000000000000, 0.000000000000000000 ) ) ;
#33 = ADVANCED_FACE ( 'NONE', ( #150 ), #113, .T. ) ;
#34 = ADVANCED_FACE ( 'NONE', ( #217 ), #377, .F. ) ;
#35 = DIRECTION ( 'NONE',  ( 1.000000000000000000, 0.000000000000000000, 0.000000000000000000 ) ) ;
#36 = CARTESIAN_POINT ( 'NONE',  ( 0.000000000000000000, 0.000000000000000000, 6.200000000000001954 ) ) ;
#37 = CLOSED_SHELL ( 'NONE', ( #304, #251, #58, #34, #214, #145, #289, #332, #347, #11, #43, #146, #159, #33 ) ) ;
#38 = AXIS2_PLACEMENT_3D ( 'NONE', #248, #105, #255 ) ;
#39 = CARTESIAN_POINT ( 'NONE',  ( 5.099999999999999645, 6.245698675651500839E-16, 0.2000000000000022593 ) ) ;
#40 = LINE ( 'NONE', #376, #185 ) ;
#41 = AXIS2_PLACEMENT_3D ( 'NONE', #121, #244, #367 ) ;
#42 = DIRECTION ( 'NONE',  ( 1.000000000000000000, 0.000000000000000000, 0.000000000000000000 ) ) ;
#43 = ADVANCED_FACE ( 'NONE', ( #209 ), #89, .F. ) ;
#44 = FACE_OUTER_BOUND ( 'NONE', #175, .T. ) ;
#45 = EDGE_LOOP ( 'NONE', ( #53, #31 ) ) ;
#46 = APPLICATION_PROTOCOL_DEFINITION ( 'draft international standard', 'automotive_design', 1998, #230 ) ;
#47 = ORIENTED_EDGE ( 'NONE', *, *, #188, .T. ) ;
#48 = AXIS2_PLACEMENT_3D ( 'NONE', #320, #191, #42 ) ;
#49 =( GEOMETRIC_REPRESENTATION_CONTEXT ( 3 ) GLOBAL_UNCERTAINTY_ASSIGNED_CONTEXT ( ( #391 ) ) GLOBAL_UNIT_ASSIGNED_CONTEXT ( ( #300, #385, #326 ) ) REPRESENTATION_CONTEXT ( 'NONE', 'WORKASPACE' ) );
#50 = ORIENTED_EDGE ( 'NONE', *, *, #172, .T. ) ;
#51 = ORIENTED_EDGE ( 'NONE', *, *, #172, .F. ) ;
#52 = DIRECTION ( 'NONE',  ( 0.000000000000000000, 0.000000000000000000, 1.000000000000000000 ) ) ;
#53 = ORIENTED_EDGE ( 'NONE', *, *, #259, .T. ) ;
#54 = ORIENTED_EDGE ( 'NONE', *, *, #119, .F. ) ;
#55 = AXIS2_PLACEMENT_3D ( 'NONE', #345, #399, #66 ) ;
#56 = DIRECTION ( 'NONE',  ( -0.000000000000000000, -0.000000000000000000, -1.000000000000000000 ) ) ;
#57 = ORIENTED_EDGE ( 'NONE', *, *, #284, .T. ) ;
#58 = ADVANCED_FACE ( 'NONE', ( #274 ), #70, .F. ) ;
#59 = LINE ( 'NONE', #369, #144 ) ;
#60 = EDGE_LOOP ( 'NONE', ( #124, #148 ) ) ;
#61 = DIRECTION ( 'NONE',  ( 1.000000000000000000, 0.000000000000000000, 0.000000000000000000 ) ) ;
#62 = VERTEX_POINT ( 'NONE', #212 ) ;
#63 = VECTOR ( 'NONE', #265, 999.9999999999998863 ) ;
#64 = AXIS2_PLACEMENT_3D ( 'NONE', #101, #258, #196 ) ;
#65 = DIRECTION ( 'NONE',  ( 1.000000000000000000, 0.000000000000000000, 0.000000000000000000 ) ) ;
#66 = DIRECTION ( 'NONE',  ( 1.000000000000000000, 0.000000000000000000, 0.000000000000000000 ) ) ;
#67 = DIRECTION ( 'NONE',  ( 1.000000000000000000, 0.000000000000000000, 0.000000000000000000 ) ) ;
#68 = FILL_AREA_STYLE ('',( #283 ) ) ;
#69 = CIRCLE ( 'NONE', #126, 5.099999999999999645 ) ;
#70 = CONICAL_SURFACE ( 'NONE', #176, 5.099999999999999645, 0.7853981633974548293 ) ;
#71 = CARTESIAN_POINT ( 'NONE',  ( 6.800000000000004263, 8.327598234202006049E-16, 6.400000000000000355 ) ) ;
#72 = DIRECTION ( 'NONE',  ( 1.000000000000000000, 0.000000000000000000, 0.000000000000000000 ) ) ;
#73 = EDGE_CURVE ( 'NONE', #93, #109, #156, .T. ) ;
#74 = EDGE_CURVE ( 'NONE', #77, #299, #59, .T. ) ;
#75 = CIRCLE ( 'NONE', #350, 5.300000000000000711 ) ;
#76 = ORIENTED_EDGE ( 'NONE', *, *, #117, .T. ) ;
#77 = VERTEX_POINT ( 'NONE', #305 ) ;
#78 = CARTESIAN_POINT ( 'NONE',  ( 0.000000000000000000, 0.000000000000000000, 6.400000000000000355 ) ) ;
#79 = ORIENTED_EDGE ( 'NONE', *, *, #309, .T. ) ;
#80 = AXIS2_PLACEMENT_3D ( 'NONE', #306, #371, #32 ) ;
#81 = AXIS2_PLACEMENT_3D ( 'NONE', #234, #232, #15 ) ;
#82 = DIRECTION ( 'NONE',  ( 1.000000000000000000, 0.000000000000000000, 0.000000000000000000 ) ) ;
#83 = CARTESIAN_POINT ( 'NONE',  ( -5.099999999999999645, 6.245698675651500839E-16, 6.200000000000001954 ) ) ;
#84 = ORIENTED_EDGE ( 'NONE', *, *, #189, .F. ) ;
#85 = EDGE_LOOP ( 'NONE', ( #166, #246, #141, #393 ) ) ;
#86 = CYLINDRICAL_SURFACE ( 'NONE', #20, 7.000000000000000000 ) ;
#87 = ORIENTED_EDGE ( 'NONE', *, *, #139, .F. ) ;
#88 = EDGE_CURVE ( 'NONE', #272, #77, #107, .T. ) ;
#89 = CONICAL_SURFACE ( 'NONE', #335, 5.300000000000000711, 0.7853981633974460586 ) ;
#90 = DIRECTION ( 'NONE',  ( -0.000000000000000000, -0.000000000000000000, -1.000000000000000000 ) ) ;
#91 = EDGE_LOOP ( 'NONE', ( #235, #310, #302, #147 ) ) ;
#92 = CARTESIAN_POINT ( 'NONE',  ( 0.000000000000000000, 0.000000000000000000, 0.000000000000000000 ) ) ;
#93 = VERTEX_POINT ( 'NONE', #397 ) ;
#94 = EDGE_CURVE ( 'NONE', #25, #299, #151, .T. ) ;
#95 = DIRECTION ( 'NONE',  ( -1.000000000000000000, 0.000000000000000000, 0.000000000000000000 ) ) ;
#96 = AXIS2_PLACEMENT_3D ( 'NONE', #346, #98, #352 ) ;
#97 = DIRECTION ( 'NONE',  ( 1.000000000000000000, 0.000000000000000000, 0.000000000000000000 ) ) ;
#98 = DIRECTION ( 'NONE',  ( -0.000000000000000000, -0.000000000000000000, 1.000000000000000000 ) ) ;
#99 =( NAMED_UNIT ( * ) SI_UNIT ( $, .STERADIAN. ) SOLID_ANGLE_UNIT ( ) );
#100 = EDGE_CURVE ( 'NONE', #272, #25, #338, .T. ) ;
#101 = CARTESIAN_POINT ( 'NONE',  ( 0.000000000000000000, 0.000000000000000000, 6.400000000000000355 ) ) ;
#102 = CIRCLE ( 'NONE', #343, 6.800000000000002487 ) ;
#103 = CARTESIAN_POINT ( 'NONE',  ( -7.000000000000000000, 8.572527594031473190E-16, 0.1999999999999961808 ) ) ;
#104 = EDGE_CURVE ( 'NONE', #339, #120, #102, .T. ) ;
#105 = DIRECTION ( 'NONE',  ( -0.000000000000000000, -0.000000000000000000, 1.000000000000000000 ) ) ;
#106 = DIRECTION ( 'NONE',  ( -1.000000000000000000, 0.000000000000000000, 0.000000000000000000 ) ) ;
#107 = CIRCLE ( 'NONE', #262, 5.099999999999999645 ) ;
#108 = AXIS2_PLACEMENT_3D ( 'NONE', #356, #200, #328 ) ;
#109 = VERTEX_POINT ( 'NONE', #122 ) ;
#110 = DIRECTION ( 'NONE',  ( -0.000000000000000000, -0.000000000000000000, -1.000000000000000000 ) ) ;
#111 = FACE_OUTER_BOUND ( 'NONE', #45, .T. ) ;
#112 = ORIENTED_EDGE ( 'NONE', *, *, #384, .T. ) ;
#113 = CONICAL_SURFACE ( 'NONE', #293, 6.800000000000004263, 0.7853981633974418397 ) ;
#114 = AXIS2_PLACEMENT_3D ( 'NONE', #168, #52, #165 ) ;
#115 = DIRECTION ( 'NONE',  ( 0.000000000000000000, 0.000000000000000000, 1.000000000000000000 ) ) ;
#116 = ORIENTED_EDGE ( 'NONE', *, *, #250, .T. ) ;
#117 = EDGE_CURVE ( 'NONE', #109, #93, #316, .T. ) ;
#118 = ORIENTED_EDGE ( 'NONE', *, *, #259, .F. ) ;
#119 = EDGE_CURVE ( 'NONE', #339, #201, #154, .T. ) ;
#120 = VERTEX_POINT ( 'NONE', #278 ) ;
#121 = CARTESIAN_POINT ( 'NONE',  ( 0.000000000000000000, 0.000000000000000000, 6.200000000000001954 ) ) ;
#122 = CARTESIAN_POINT ( 'NONE',  ( 7.000000000000000000, 8.572527594031473190E-16, 6.200000000000001954 ) ) ;
#123 = DIRECTION ( 'NONE',  ( 0.000000000000000000, 0.000000000000000000, 1.000000000000000000 ) ) ;
#124 = ORIENTED_EDGE ( 'NONE', *, *, #130, .T. ) ;
#125 = DIRECTION ( 'NONE',  ( -0.7071067811865460184, 0.000000000000000000, -0.7071067811865490160 ) ) ;
#126 = AXIS2_PLACEMENT_3D ( 'NONE', #36, #157, #254 ) ;
#127 = DIRECTION ( 'NONE',  ( 0.000000000000000000, 0.000000000000000000, 1.000000000000000000 ) ) ;
#128 = CIRCLE ( 'NONE', #381, 5.099999999999999645 ) ;
#129 = CARTESIAN_POINT ( 'NONE',  ( -7.000000000000000000, 0.000000000000000000, 6.400000000000000355 ) ) ;
#130 = EDGE_CURVE ( 'NONE', #299, #25, #132, .T. ) ;
#131 =( NAMED_UNIT ( * ) PLANE_ANGLE_UNIT ( ) SI_UNIT ( $, .RADIAN. ) );
#132 = CIRCLE ( 'NONE', #55, 5.300000000000000711 ) ;
#133 = LINE ( 'NONE', #193, #253 ) ;
#134 = DIRECTION ( 'NONE',  ( 1.000000000000000000, 0.000000000000000000, 0.000000000000000000 ) ) ;
#135 = CARTESIAN_POINT ( 'NONE',  ( 0.000000000000000000, 0.000000000000000000, 6.400000000000000355 ) ) ;
#136 = CIRCLE ( 'NONE', #325, 6.800000000000004263 ) ;
#137 = DIRECTION ( 'NONE',  ( -0.000000000000000000, -0.000000000000000000, 1.000000000000000000 ) ) ;
#138 = ORIENTED_EDGE ( 'NONE', *, *, #117, .F. ) ;
#139 = EDGE_CURVE ( 'NONE', #327, #19, #136, .T. ) ;
#140 = CARTESIAN_POINT ( 'NONE',  ( 0.000000000000000000, 0.000000000000000000, 6.400000000000000355 ) ) ;
#141 = ORIENTED_EDGE ( 'NONE', *, *, #74, .T. ) ;
#142 = DIRECTION ( 'NONE',  ( -0.000000000000000000, -0.000000000000000000, -1.000000000000000000 ) ) ;
#143 = ORIENTED_EDGE ( 'NONE', *, *, #221, .F. ) ;
#144 = VECTOR ( 'NONE', #125, 1000.000000000000114 ) ;
#145 = ADVANCED_FACE ( 'NONE', ( #155 ), #86, .T. ) ;
#146 = ADVANCED_FACE ( 'NONE', ( #23 ), #245, .F. ) ;
#147 = ORIENTED_EDGE ( 'NONE', *, *, #358, .F. ) ;
#148 = ORIENTED_EDGE ( 'NONE', *, *, #94, .T. ) ;
#149 = CARTESIAN_POINT ( 'NONE',  ( 0.000000000000000000, 0.000000000000000000, 6.200000000000001954 ) ) ;
#150 = FACE_OUTER_BOUND ( 'NONE', #337, .T. ) ;
#151 = CIRCLE ( 'NONE', #256, 5.300000000000000711 ) ;
#152 = CARTESIAN_POINT ( 'NONE',  ( 0.000000000000000000, 0.000000000000000000, 6.400000000000000355 ) ) ;
#153 = ORIENTED_EDGE ( 'NONE', *, *, #88, .F. ) ;
#154 = LINE ( 'NONE', #280, #281 ) ;
#155 = FACE_OUTER_BOUND ( 'NONE', #269, .T. ) ;
#156 = CIRCLE ( 'NONE', #28, 7.000000000000000000 ) ;
#157 = DIRECTION ( 'NONE',  ( 0.000000000000000000, 0.000000000000000000, 1.000000000000000000 ) ) ;
#158 = DIRECTION ( 'NONE',  ( -0.000000000000000000, -0.000000000000000000, -1.000000000000000000 ) ) ;
#159 = ADVANCED_FACE ( 'NONE', ( #26 ), #210, .T. ) ;
#160 = DIRECTION ( 'NONE',  ( -0.7071067811865505703, 8.659560562354969836E-17, 0.7071067811865444641 ) ) ;
#161 = CIRCLE ( 'NONE', #48, 5.099999999999999645 ) ;
#162 = SURFACE_STYLE_FILL_AREA ( #68 ) ;
#163 = CARTESIAN_POINT ( 'NONE',  ( 0.000000000000000000, 0.000000000000000000, 6.200000000000001954 ) ) ;
#164 = EDGE_LOOP ( 'NONE', ( #22, #341, #355, #54 ) ) ;
#165 = DIRECTION ( 'NONE',  ( 1.000000000000000000, 0.000000000000000000, -0.000000000000000000 ) ) ;
#166 = ORIENTED_EDGE ( 'NONE', *, *, #100, .F. ) ;
#167 = AXIS2_PLACEMENT_3D ( 'NONE', #6, #158, #285 ) ;
#168 = CARTESIAN_POINT ( 'NONE',  ( 0.000000000000000000, 0.000000000000000000, 6.400000000000000355 ) ) ;
#169 = DIRECTION ( 'NONE',  ( -1.000000000000000000, 0.000000000000000000, 0.000000000000000000 ) ) ;
#170 = PRODUCT ( 'ZTK_PART_ENTRETOISE SPRM DIA10', 'ZTK_PART_ENTRETOISE SPRM DIA10', '', ( #239 ) ) ;
#171 = ORIENTED_EDGE ( 'NONE', *, *, #100, .T. ) ;
#172 = EDGE_CURVE ( 'NONE', #19, #93, #133, .T. ) ;
#173 = EDGE_CURVE ( 'NONE', #93, #364, #7, .T. ) ;
#174 = CARTESIAN_POINT ( 'NONE',  ( 0.000000000000000000, 0.000000000000000000, 0.000000000000000000 ) ) ;
#175 = EDGE_LOOP ( 'NONE', ( #87, #390, #216, #51 ) ) ;
#176 = AXIS2_PLACEMENT_3D ( 'NONE', #149, #123, #61 ) ;
#177 = ORIENTED_EDGE ( 'NONE', *, *, #284, .F. ) ;
#178 = DIRECTION ( 'NONE',  ( 0.7071067811865460184, 8.659560562354913137E-17, -0.7071067811865490160 ) ) ;
#179 = EDGE_LOOP ( 'NONE', ( #392, #199, #207, #177 ) ) ;
#180 = MANIFOLD_SOLID_BREP ( 'Chanfrein1', #37 ) ;
#181 = CARTESIAN_POINT ( 'NONE',  ( 0.000000000000000000, 0.000000000000000000, 0.000000000000000000 ) ) ;
#182 = EDGE_LOOP ( 'NONE', ( #153, #171, #241, #383 ) ) ;
#183 = DIRECTION ( 'NONE',  ( -0.000000000000000000, -0.000000000000000000, -1.000000000000000000 ) ) ;
#184 = ORIENTED_EDGE ( 'NONE', *, *, #1, .T. ) ;
#185 = VECTOR ( 'NONE', #194, 1000.000000000000000 ) ;
#186 = DIRECTION ( 'NONE',  ( 1.000000000000000000, 0.000000000000000000, 0.000000000000000000 ) ) ;
#187 = CARTESIAN_POINT ( 'NONE',  ( 0.000000000000000000, 0.000000000000000000, 6.400000000000000355 ) ) ;
#188 = EDGE_CURVE ( 'NONE', #120, #339, #396, .T. ) ;
#189 = EDGE_CURVE ( 'NONE', #62, #272, #40, .T. ) ;
#190 = PRESENTATION_LAYER_ASSIGNMENT (  '', '', ( #368 ) ) ;
#191 = DIRECTION ( 'NONE',  ( -0.000000000000000000, -0.000000000000000000, -1.000000000000000000 ) ) ;
#192 = CONICAL_SURFACE ( 'NONE', #247, 6.800000000000004263, 0.7853981633974418397 ) ;
#193 = CARTESIAN_POINT ( 'NONE',  ( -6.800000000000004263, 0.000000000000000000, 6.400000000000000355 ) ) ;
#194 = DIRECTION ( 'NONE',  ( -0.000000000000000000, -0.000000000000000000, -1.000000000000000000 ) ) ;
#195 = AXIS2_PLACEMENT_3D ( 'NONE', #135, #110, #169 ) ;
#196 = DIRECTION ( 'NONE',  ( 1.000000000000000000, 0.000000000000000000, 0.000000000000000000 ) ) ;
#197 = AXIS2_PLACEMENT_3D ( 'NONE', #318, #127, #72 ) ;
#198 = DIRECTION ( 'NONE',  ( 0.000000000000000000, 0.000000000000000000, 1.000000000000000000 ) ) ;
#199 = ORIENTED_EDGE ( 'NONE', *, *, #189, .T. ) ;
#200 = DIRECTION ( 'NONE',  ( -0.000000000000000000, -0.000000000000000000, 1.000000000000000000 ) ) ;
#201 = VERTEX_POINT ( 'NONE', #351 ) ;
#202 = DIRECTION ( 'NONE',  ( 1.000000000000000000, 0.000000000000000000, 0.000000000000000000 ) ) ;
#203 = EDGE_LOOP ( 'NONE', ( #329, #76, #243, #21 ) ) ;
#204 = PLANE ( 'NONE',  #114 ) ;
#205 = DIRECTION ( 'NONE',  ( -0.7071067811865521247, 8.659560562354992023E-17, 0.7071067811865430208 ) ) ;
#206 = LINE ( 'NONE', #13, #4 ) ;
#207 = ORIENTED_EDGE ( 'NONE', *, *, #88, .T. ) ;
#208 = ORIENTED_EDGE ( 'NONE', *, *, #17, .F. ) ;
#209 = FACE_OUTER_BOUND ( 'NONE', #85, .T. ) ;
#210 = CONICAL_SURFACE ( 'NONE', #38, 7.000000000000000000, 0.7853981633974526089 ) ;
#211 = EDGE_LOOP ( 'NONE', ( #323, #47 ) ) ;
#212 = CARTESIAN_POINT ( 'NONE',  ( 5.099999999999999645, 6.245698675651500839E-16, 6.200000000000001954 ) ) ;
#213 = EDGE_LOOP ( 'NONE', ( #233, #357, #143, #366 ) ) ;
#214 = ADVANCED_FACE ( 'NONE', ( #314 ), #5, .F. ) ;
#215 = DIRECTION ( 'NONE',  ( 0.000000000000000000, 0.000000000000000000, 1.000000000000000000 ) ) ;
#216 = ORIENTED_EDGE ( 'NONE', *, *, #73, .F. ) ;
#217 = FACE_OUTER_BOUND ( 'NONE', #182, .T. ) ;
#218 = CIRCLE ( 'NONE', #197, 6.800000000000004263 ) ;
#219 = CARTESIAN_POINT ( 'NONE',  ( 5.300000000000000711, 6.490628035480972910E-16, 0.000000000000000000 ) ) ;
#220 = EDGE_CURVE ( 'NONE', #327, #109, #290, .T. ) ;
#221 = EDGE_CURVE ( 'NONE', #388, #266, #224, .T. ) ;
#222 = CARTESIAN_POINT ( 'NONE',  ( 0.000000000000000000, 0.000000000000000000, 0.000000000000000000 ) ) ;
#223 = PRODUCT_DEFINITION_SHAPE ( 'NONE', 'NONE',  #353 ) ;
#224 = CIRCLE ( 'NONE', #64, 5.300000000000000711 ) ;
#225 = CIRCLE ( 'NONE', #108, 7.000000000000000000 ) ;
#226 = LINE ( 'NONE', #103, #286 ) ;
#227 = FACE_OUTER_BOUND ( 'NONE', #164, .T. ) ;
#228 = DIRECTION ( 'NONE',  ( -0.000000000000000000, -0.000000000000000000, -1.000000000000000000 ) ) ;
#229 = CYLINDRICAL_SURFACE ( 'NONE', #81, 7.000000000000000000 ) ;
#230 = APPLICATION_CONTEXT ( 'automotive_design' ) ;
#231 = EDGE_CURVE ( 'NONE', #120, #364, #226, .T. ) ;
#232 = DIRECTION ( 'NONE',  ( -0.000000000000000000, -0.000000000000000000, -1.000000000000000000 ) ) ;
#233 = ORIENTED_EDGE ( 'NONE', *, *, #288, .F. ) ;
#234 = CARTESIAN_POINT ( 'NONE',  ( 0.000000000000000000, 0.000000000000000000, 6.400000000000000355 ) ) ;
#235 = ORIENTED_EDGE ( 'NONE', *, *, #231, .F. ) ;
#236 = CARTESIAN_POINT ( 'NONE',  ( 0.000000000000000000, 0.000000000000000000, 0.1999999999999961808 ) ) ;
#237 = EDGE_CURVE ( 'NONE', #62, #27, #69, .T. ) ;
#238 = EDGE_LOOP ( 'NONE', ( #271, #297 ) ) ;
#239 = PRODUCT_CONTEXT ( 'NONE', #315, 'mechanical' ) ;
#240 = ORIENTED_EDGE ( 'NONE', *, *, #237, .T. ) ;
#241 = ORIENTED_EDGE ( 'NONE', *, *, #130, .F. ) ;
#242 = DIRECTION ( 'NONE',  ( -1.000000000000000000, 0.000000000000000000, 0.000000000000000000 ) ) ;
#243 = ORIENTED_EDGE ( 'NONE', *, *, #173, .T. ) ;
#244 = DIRECTION ( 'NONE',  ( 0.000000000000000000, 0.000000000000000000, 1.000000000000000000 ) ) ;
#245 = CONICAL_SURFACE ( 'NONE', #41, 5.099999999999999645, 0.7853981633974548293 ) ;
#246 = ORIENTED_EDGE ( 'NONE', *, *, #250, .F. ) ;
#247 = AXIS2_PLACEMENT_3D ( 'NONE', #78, #361, #106 ) ;
#248 = CARTESIAN_POINT ( 'NONE',  ( 0.000000000000000000, 0.000000000000000000, 0.1999999999999961808 ) ) ;
#249 = DIRECTION ( 'NONE',  ( 1.000000000000000000, 0.000000000000000000, 0.000000000000000000 ) ) ;
#250 = EDGE_CURVE ( 'NONE', #77, #272, #161, .T. ) ;
#251 = ADVANCED_FACE ( 'NONE', ( #227 ), #270, .T. ) ;
#252 = CARTESIAN_POINT ( 'NONE',  ( 0.000000000000000000, 0.000000000000000000, 0.000000000000000000 ) ) ;
#253 = VECTOR ( 'NONE', #378, 1000.000000000000000 ) ;
#254 = DIRECTION ( 'NONE',  ( 1.000000000000000000, 0.000000000000000000, 0.000000000000000000 ) ) ;
#255 = DIRECTION ( 'NONE',  ( 1.000000000000000000, 0.000000000000000000, 0.000000000000000000 ) ) ;
#256 = AXIS2_PLACEMENT_3D ( 'NONE', #181, #215, #97 ) ;
#257 = AXIS2_PLACEMENT_3D ( 'NONE', #174, #115, #264 ) ;
#258 = DIRECTION ( 'NONE',  ( -0.000000000000000000, -0.000000000000000000, -1.000000000000000000 ) ) ;
#259 = EDGE_CURVE ( 'NONE', #19, #327, #218, .T. ) ;
#260 = CARTESIAN_POINT ( 'NONE',  ( 5.300000000000000711, 0.000000000000000000, 6.400000000000000355 ) ) ;
#261 = CARTESIAN_POINT ( 'NONE',  ( -5.300000000000000711, 0.000000000000000000, 0.000000000000000000 ) ) ;
#262 = AXIS2_PLACEMENT_3D ( 'NONE', #2, #394, #186 ) ;
#263 = EDGE_LOOP ( 'NONE', ( #84, #240, #57, #116 ) ) ;
#264 = DIRECTION ( 'NONE',  ( 1.000000000000000000, 0.000000000000000000, -0.000000000000000000 ) ) ;
#265 = DIRECTION ( 'NONE',  ( 0.7071067811865521247, 0.000000000000000000, 0.7071067811865430208 ) ) ;
#266 = VERTEX_POINT ( 'NONE', #287 ) ;
#267 = DIRECTION ( 'NONE',  ( 0.000000000000000000, 0.000000000000000000, 1.000000000000000000 ) ) ;
#268 = VECTOR ( 'NONE', #205, 999.9999999999998863 ) ;
#269 = EDGE_LOOP ( 'NONE', ( #359, #79, #112, #331 ) ) ;
#270 = CONICAL_SURFACE ( 'NONE', #96, 7.000000000000000000, 0.7853981633974526089 ) ;
#271 = ORIENTED_EDGE ( 'NONE', *, *, #221, .T. ) ;
#272 = VERTEX_POINT ( 'NONE', #39 ) ;
#273 = CARTESIAN_POINT ( 'NONE',  ( 0.000000000000000000, 0.000000000000000000, 6.400000000000000355 ) ) ;
#274 = FACE_OUTER_BOUND ( 'NONE', #213, .T. ) ;
#275 = VECTOR ( 'NONE', #228, 1000.000000000000000 ) ;
#276 = DIRECTION ( 'NONE',  ( 0.000000000000000000, 0.000000000000000000, -1.000000000000000000 ) ) ;
#277 = PRODUCT_RELATED_PRODUCT_CATEGORY ( 'part', '', ( #170 ) ) ;
#278 = CARTESIAN_POINT ( 'NONE',  ( -6.800000000000002487, 8.450062914116737647E-16, 0.000000000000000000 ) ) ;
#279 = PRODUCT_DEFINITION_CONTEXT ( 'detailed design', #230, 'design' ) ;
#280 = CARTESIAN_POINT ( 'NONE',  ( 7.000000000000000000, 0.000000000000000000, 0.1999999999999961808 ) ) ;
#281 = VECTOR ( 'NONE', #29, 1000.000000000000000 ) ;
#282 = DIRECTION ( 'NONE',  ( -0.000000000000000000, -0.000000000000000000, -1.000000000000000000 ) ) ;
#283 = FILL_AREA_STYLE_COLOUR ( '', #349 ) ;
#284 = EDGE_CURVE ( 'NONE', #27, #77, #8, .T. ) ;
#285 = DIRECTION ( 'NONE',  ( -1.000000000000000000, 0.000000000000000000, 0.000000000000000000 ) ) ;
#286 = VECTOR ( 'NONE', #160, 1000.000000000000000 ) ;
#287 = CARTESIAN_POINT ( 'NONE',  ( -5.300000000000000711, 6.490628035480972910E-16, 6.400000000000000355 ) ) ;
#288 = EDGE_CURVE ( 'NONE', #27, #62, #128, .T. ) ;
#289 = ADVANCED_FACE ( 'NONE', ( #330, #111 ), #204, .T. ) ;
#290 = LINE ( 'NONE', #71, #372 ) ;
#291 = CARTESIAN_POINT ( 'NONE',  ( 6.800000000000004263, 8.450062914116739619E-16, 6.400000000000000355 ) ) ;
#292 = ORIENTED_EDGE ( 'NONE', *, *, #220, .F. ) ;
#293 = AXIS2_PLACEMENT_3D ( 'NONE', #152, #276, #340 ) ;
#294 = DIRECTION ( 'NONE',  ( -0.000000000000000000, -0.000000000000000000, -1.000000000000000000 ) ) ;
#295 =( GEOMETRIC_REPRESENTATION_CONTEXT ( 3 ) GLOBAL_UNCERTAINTY_ASSIGNED_CONTEXT ( ( #311 ) ) GLOBAL_UNIT_ASSIGNED_CONTEXT ( ( #319, #131, #99 ) ) REPRESENTATION_CONTEXT ( 'NONE', 'WORKASPACE' ) );
#296 = VECTOR ( 'NONE', #294, 1000.000000000000000 ) ;
#297 = ORIENTED_EDGE ( 'NONE', *, *, #374, .T. ) ;
#298 = PLANE ( 'NONE',  #257 ) ;
#299 = VERTEX_POINT ( 'NONE', #261 ) ;
#300 =( LENGTH_UNIT ( ) NAMED_UNIT ( * ) SI_UNIT ( .MILLI., .METRE. ) );
#301 = CARTESIAN_POINT ( 'NONE',  ( -6.800000000000004263, 0.000000000000000000, 6.400000000000000355 ) ) ;
#302 = ORIENTED_EDGE ( 'NONE', *, *, #119, .T. ) ;
#303 = AXIS2_PLACEMENT_3D ( 'NONE', #363, #198, #382 ) ;
#304 = ADVANCED_FACE ( 'NONE', ( #44 ), #192, .T. ) ;
#305 = CARTESIAN_POINT ( 'NONE',  ( -5.099999999999999645, 0.000000000000000000, 0.2000000000000022593 ) ) ;
#306 = CARTESIAN_POINT ( 'NONE',  ( 0.000000000000000000, 0.000000000000000000, 6.200000000000001954 ) ) ;
#307 = DIRECTION ( 'NONE',  ( 0.000000000000000000, 0.000000000000000000, -1.000000000000000000 ) ) ;
#308 = MECHANICAL_DESIGN_GEOMETRIC_PRESENTATION_REPRESENTATION (  '', ( #368 ), #295 ) ;
#309 = EDGE_CURVE ( 'NONE', #109, #201, #206, .T. ) ;
#310 = ORIENTED_EDGE ( 'NONE', *, *, #104, .F. ) ;
#311 = UNCERTAINTY_MEASURE_WITH_UNIT (LENGTH_MEASURE( 1.000000000000000082E-05 ), #319, 'distance_accuracy_value', 'NONE');
#312 = DIRECTION ( 'NONE',  ( -0.000000000000000000, -0.000000000000000000, -1.000000000000000000 ) ) ;
#313 = DIRECTION ( 'NONE',  ( 0.000000000000000000, 0.000000000000000000, 1.000000000000000000 ) ) ;
#314 = FACE_OUTER_BOUND ( 'NONE', #179, .T. ) ;
#315 = APPLICATION_CONTEXT ( 'automotive_design' ) ;
#316 = CIRCLE ( 'NONE', #80, 7.000000000000000000 ) ;
#317 = PRODUCT_DEFINITION_FORMATION_WITH_SPECIFIED_SOURCE ( 'ANY', '', #170, .NOT_KNOWN. ) ;
#318 = CARTESIAN_POINT ( 'NONE',  ( 0.000000000000000000, 0.000000000000000000, 6.400000000000000355 ) ) ;
#319 =( LENGTH_UNIT ( ) NAMED_UNIT ( * ) SI_UNIT ( .MILLI., .METRE. ) );
#320 = CARTESIAN_POINT ( 'NONE',  ( 0.000000000000000000, 0.000000000000000000, 0.2000000000000022593 ) ) ;
#321 = SURFACE_STYLE_USAGE ( .BOTH. , #375 ) ;
#322 = CARTESIAN_POINT ( 'NONE',  ( -7.000000000000000000, 0.000000000000000000, 0.1999999999999961808 ) ) ;
#323 = ORIENTED_EDGE ( 'NONE', *, *, #104, .T. ) ;
#324 = ORIENTED_EDGE ( 'NONE', *, *, #237, .F. ) ;
#325 = AXIS2_PLACEMENT_3D ( 'NONE', #187, #313, #35 ) ;
#326 =( NAMED_UNIT ( * ) SI_UNIT ( $, .STERADIAN. ) SOLID_ANGLE_UNIT ( ) );
#327 = VERTEX_POINT ( 'NONE', #291 ) ;
#328 = DIRECTION ( 'NONE',  ( 1.000000000000000000, 0.000000000000000000, 0.000000000000000000 ) ) ;
#329 = ORIENTED_EDGE ( 'NONE', *, *, #309, .F. ) ;
#330 = FACE_BOUND ( 'NONE', #238, .T. ) ;
#331 = ORIENTED_EDGE ( 'NONE', *, *, #173, .F. ) ;
#332 = ADVANCED_FACE ( 'NONE', ( #387, #389 ), #298, .F. ) ;
#333 = ORIENTED_EDGE ( 'NONE', *, *, #374, .F. ) ;
#334 = CARTESIAN_POINT ( 'NONE',  ( 5.300000000000000711, 6.490628035480972910E-16, 0.000000000000000000 ) ) ;
#335 = AXIS2_PLACEMENT_3D ( 'NONE', #92, #312, #398 ) ;
#336 = AXIS2_PLACEMENT_3D ( 'NONE', #236, #137, #202 ) ;
#337 = EDGE_LOOP ( 'NONE', ( #292, #118, #50, #138 ) ) ;
#338 = LINE ( 'NONE', #219, #3 ) ;
#339 = VERTEX_POINT ( 'NONE', #9 ) ;
#340 = DIRECTION ( 'NONE',  ( -1.000000000000000000, 0.000000000000000000, 0.000000000000000000 ) ) ;
#341 = ORIENTED_EDGE ( 'NONE', *, *, #231, .T. ) ;
#342 = CARTESIAN_POINT ( 'NONE',  ( 0.000000000000000000, 0.000000000000000000, 6.200000000000001954 ) ) ;
#343 = AXIS2_PLACEMENT_3D ( 'NONE', #370, #183, #65 ) ;
#344 = SHAPE_DEFINITION_REPRESENTATION ( #223, #24 ) ;
#345 = CARTESIAN_POINT ( 'NONE',  ( 0.000000000000000000, 0.000000000000000000, 0.000000000000000000 ) ) ;
#346 = CARTESIAN_POINT ( 'NONE',  ( 0.000000000000000000, 0.000000000000000000, 0.1999999999999961808 ) ) ;
#347 = ADVANCED_FACE ( 'NONE', ( #10 ), #229, .T. ) ;
#348 = DIRECTION ( 'NONE',  ( 0.7071067811865430208, 8.659560562354877391E-17, -0.7071067811865521247 ) ) ;
#349 = COLOUR_RGB ( '',0.7921568627450980005, 0.8196078431372548767, 0.9333333333333333481 ) ;
#350 = AXIS2_PLACEMENT_3D ( 'NONE', #140, #142, #134 ) ;
#351 = CARTESIAN_POINT ( 'NONE',  ( 7.000000000000000000, 8.572527594031473190E-16, 0.1999999999999961808 ) ) ;
#352 = DIRECTION ( 'NONE',  ( 1.000000000000000000, 0.000000000000000000, 0.000000000000000000 ) ) ;
#353 = PRODUCT_DEFINITION ( 'UNKNOWN', '', #317, #279 ) ;
#354 = AXIS2_PLACEMENT_3D ( 'NONE', #252, #90, #95 ) ;
#355 = ORIENTED_EDGE ( 'NONE', *, *, #384, .F. ) ;
#356 = CARTESIAN_POINT ( 'NONE',  ( 0.000000000000000000, 0.000000000000000000, 0.1999999999999961808 ) ) ;
#357 = ORIENTED_EDGE ( 'NONE', *, *, #17, .T. ) ;
#358 = EDGE_CURVE ( 'NONE', #364, #201, #225, .T. ) ;
#359 = ORIENTED_EDGE ( 'NONE', *, *, #73, .T. ) ;
#360 = AXIS2_PLACEMENT_3D ( 'NONE', #222, #282, #67 ) ;
#361 = DIRECTION ( 'NONE',  ( 0.000000000000000000, 0.000000000000000000, -1.000000000000000000 ) ) ;
#362 = CARTESIAN_POINT ( 'NONE',  ( 5.099999999999999645, 0.000000000000000000, 6.200000000000001954 ) ) ;
#363 = CARTESIAN_POINT ( 'NONE',  ( 0.000000000000000000, 0.000000000000000000, 0.000000000000000000 ) ) ;
#364 = VERTEX_POINT ( 'NONE', #322 ) ;
#365 = CARTESIAN_POINT ( 'NONE',  ( -5.099999999999999645, 0.000000000000000000, 6.200000000000001954 ) ) ;
#366 = ORIENTED_EDGE ( 'NONE', *, *, #1, .F. ) ;
#367 = DIRECTION ( 'NONE',  ( 1.000000000000000000, 0.000000000000000000, 0.000000000000000000 ) ) ;
#368 = STYLED_ITEM ( 'NONE', ( #379 ), #180 ) ;
#369 = CARTESIAN_POINT ( 'NONE',  ( -5.300000000000000711, 0.000000000000000000, 0.000000000000000000 ) ) ;
#370 = CARTESIAN_POINT ( 'NONE',  ( 0.000000000000000000, 0.000000000000000000, 0.000000000000000000 ) ) ;
#371 = DIRECTION ( 'NONE',  ( 0.000000000000000000, 0.000000000000000000, -1.000000000000000000 ) ) ;
#372 = VECTOR ( 'NONE', #348, 1000.000000000000000 ) ;
#373 = CARTESIAN_POINT ( 'NONE',  ( -5.099999999999999645, 0.000000000000000000, 6.400000000000000355 ) ) ;
#374 = EDGE_CURVE ( 'NONE', #266, #388, #75, .T. ) ;
#375 = SURFACE_SIDE_STYLE ('',( #162 ) ) ;
#376 = CARTESIAN_POINT ( 'NONE',  ( 5.099999999999999645, 6.245698675651500839E-16, 6.400000000000000355 ) ) ;
#377 = CONICAL_SURFACE ( 'NONE', #354, 5.300000000000000711, 0.7853981633974460586 ) ;
#378 = DIRECTION ( 'NONE',  ( -0.7071067811865430208, 0.000000000000000000, -0.7071067811865521247 ) ) ;
#379 = PRESENTATION_STYLE_ASSIGNMENT (( #321 ) ) ;
#380 = DIRECTION ( 'NONE',  ( -0.000000000000000000, -0.000000000000000000, -1.000000000000000000 ) ) ;
#381 = AXIS2_PLACEMENT_3D ( 'NONE', #163, #267, #82 ) ;
#382 = DIRECTION ( 'NONE',  ( 1.000000000000000000, 0.000000000000000000, 0.000000000000000000 ) ) ;
#383 = ORIENTED_EDGE ( 'NONE', *, *, #74, .F. ) ;
#384 = EDGE_CURVE ( 'NONE', #201, #364, #30, .T. ) ;
#385 =( NAMED_UNIT ( * ) PLANE_ANGLE_UNIT ( ) SI_UNIT ( $, .RADIAN. ) );
#386 = CYLINDRICAL_SURFACE ( 'NONE', #195, 5.099999999999999645 ) ;
#387 = FACE_BOUND ( 'NONE', #60, .T. ) ;
#388 = VERTEX_POINT ( 'NONE', #260 ) ;
#389 = FACE_OUTER_BOUND ( 'NONE', #211, .T. ) ;
#390 = ORIENTED_EDGE ( 'NONE', *, *, #220, .T. ) ;
#391 = UNCERTAINTY_MEASURE_WITH_UNIT (LENGTH_MEASURE( 1.000000000000000082E-05 ), #300, 'distance_accuracy_value', 'NONE');
#392 = ORIENTED_EDGE ( 'NONE', *, *, #288, .T. ) ;
#393 = ORIENTED_EDGE ( 'NONE', *, *, #94, .F. ) ;
#394 = DIRECTION ( 'NONE',  ( -0.000000000000000000, -0.000000000000000000, -1.000000000000000000 ) ) ;
#395 = EDGE_LOOP ( 'NONE', ( #208, #324, #184, #333 ) ) ;
#396 = CIRCLE ( 'NONE', #360, 6.800000000000002487 ) ;
#397 = CARTESIAN_POINT ( 'NONE',  ( -7.000000000000000000, 0.000000000000000000, 6.200000000000001954 ) ) ;
#398 = DIRECTION ( 'NONE',  ( -1.000000000000000000, 0.000000000000000000, 0.000000000000000000 ) ) ;
#399 = DIRECTION ( 'NONE',  ( 0.000000000000000000, 0.000000000000000000, 1.000000000000000000 ) ) ;
ENDSEC;
END-ISO-10303-21;
