ISO-10303-21;
HEADER;
FILE_DESCRIPTION (( 'STEP AP214' ),
    '1' );
FILE_NAME ('Tube cassette bikap V1d.STEP',
    '2024-03-27T08:20:26',
    ( '' ),
    ( '' ),
    'SwSTEP 2.0',
    'SolidWorks 2024',
    '' );
FILE_SCHEMA (( 'AUTOMOTIVE_DESIGN' ));
ENDSEC;

DATA;
#1 = ORIENTED_EDGE ( 'NONE', *, *, #115, .T. ) ;
#2 = EDGE_CURVE ( 'NONE', #168, #285, #317, .T. ) ;
#3 = STYLED_ITEM ( 'NONE', ( #132 ), #188 ) ;
#4 = DIRECTION ( 'NONE',  ( 1.000000000000000000, 0.000000000000000000, 0.000000000000000000 ) ) ;
#5 = DIRECTION ( 'NONE',  ( -1.000000000000000000, -0.000000000000000000, -0.000000000000000000 ) ) ;
#6 = ORIENTED_EDGE ( 'NONE', *, *, #33, .F. ) ;
#7 = ORIENTED_EDGE ( 'NONE', *, *, #107, .T. ) ;
#8 = LINE ( 'NONE', #11, #274 ) ;
#9 = EDGE_CURVE ( 'NONE', #235, #367, #35, .T. ) ;
#10 = CARTESIAN_POINT ( 'NONE',  ( -6.735557395310440051E-17, 0.000000000000000000, 0.000000000000000000 ) ) ;
#11 = CARTESIAN_POINT ( 'NONE',  ( 5.999999999999999112, 0.000000000000000000, -7.384529946162076364 ) ) ;
#12 = SURFACE_STYLE_USAGE ( .BOTH. , #307 ) ;
#13 = DIRECTION ( 'NONE',  ( 1.000000000000000000, 0.000000000000000000, 0.000000000000000000 ) ) ;
#14 = DIRECTION ( 'NONE',  ( -1.000000000000000000, -0.000000000000000000, -0.000000000000000000 ) ) ;
#15 = ORIENTED_EDGE ( 'NONE', *, *, #185, .F. ) ;
#16 = FACE_OUTER_BOUND ( 'NONE', #109, .T. ) ;
#17 = ADVANCED_FACE ( 'NONE', ( #179, #348 ), #31, .F. ) ;
#18 = EDGE_LOOP ( 'NONE', ( #59, #144 ) ) ;
#19 = VECTOR ( 'NONE', #101, 1000.000000000000000 ) ;
#20 = CARTESIAN_POINT ( 'NONE',  ( -6.735557395310440051E-17, 8.553582242116234390E-16, 6.984529946162085778 ) ) ;
#21 = CARTESIAN_POINT ( 'NONE',  ( -6.735557395310440051E-17, 0.000000000000000000, 0.000000000000000000 ) ) ;
#22 = VERTEX_POINT ( 'NONE', #83 ) ;
#23 = VERTEX_POINT ( 'NONE', #210 ) ;
#24 = VECTOR ( 'NONE', #303, 1000.000000000000000 ) ;
#25 = DIRECTION ( 'NONE',  ( 0.000000000000000000, 0.000000000000000000, 1.000000000000000000 ) ) ;
#26 = ORIENTED_EDGE ( 'NONE', *, *, #267, .F. ) ;
#27 = DIRECTION ( 'NONE',  ( 0.000000000000000000, 0.000000000000000000, 1.000000000000000000 ) ) ;
#28 = CARTESIAN_POINT ( 'NONE',  ( 27.00000000000000000, 6.000000000000000000, 0.000000000000000000 ) ) ;
#29 = AXIS2_PLACEMENT_3D ( 'NONE', #328, #332, #180 ) ;
#30 = CARTESIAN_POINT ( 'NONE',  ( 0.000000000000000000, 0.000000000000000000, 0.000000000000000000 ) ) ;
#31 = PLANE ( 'NONE',  #157 ) ;
#32 = CARTESIAN_POINT ( 'NONE',  ( 5.999999999999999112, 0.000000000000000000, 0.000000000000000000 ) ) ;
#33 = EDGE_CURVE ( 'NONE', #290, #171, #224, .T. ) ;
#34 = FACE_BOUND ( 'NONE', #148, .T. ) ;
#35 = CIRCLE ( 'NONE', #124, 7.500000000000000000 ) ;
#36 = AXIS2_PLACEMENT_3D ( 'NONE', #258, #260, #283 ) ;
#37 = CARTESIAN_POINT ( 'NONE',  ( 5.999999999999999112, 7.499999999999997335, 0.000000000000000000 ) ) ;
#38 = LINE ( 'NONE', #281, #363 ) ;
#39 = FACE_OUTER_BOUND ( 'NONE', #326, .T. ) ;
#40 = CONICAL_SURFACE ( 'NONE', #92, 6.984529946162085778, 0.5235987755982925984 ) ;
#41 = CARTESIAN_POINT ( 'NONE',  ( 27.00000000000000000, 0.000000000000000000, 0.000000000000000000 ) ) ;
#42 = ORIENTED_EDGE ( 'NONE', *, *, #306, .T. ) ;
#43 = EDGE_CURVE ( 'NONE', #221, #350, #62, .T. ) ;
#44 = CARTESIAN_POINT ( 'NONE',  ( 0.1999999999999813594, 8.694992273946205774E-16, -7.099999999999998757 ) ) ;
#45 = CONICAL_SURFACE ( 'NONE', #151, 7.384529946162076364, 0.5235987755982950409 ) ;
#46 = ORIENTED_EDGE ( 'NONE', *, *, #55, .T. ) ;
#47 = CARTESIAN_POINT ( 'NONE',  ( -6.735557395310440051E-17, 0.000000000000000000, -6.984529946162085778 ) ) ;
#48 = ORIENTED_EDGE ( 'NONE', *, *, #120, .F. ) ;
#49 = CARTESIAN_POINT ( 'NONE',  ( 5.999999999999999112, 9.043440961775163741E-16, 7.384529946162076364 ) ) ;
#50 = ORIENTED_EDGE ( 'NONE', *, *, #216, .T. ) ;
#51 = EDGE_LOOP ( 'NONE', ( #71, #321 ) ) ;
#52 = PRODUCT_DEFINITION_SHAPE ( 'NONE', 'NONE',  #213 ) ;
#53 = DIRECTION ( 'NONE',  ( 1.000000000000000000, 0.000000000000000000, 0.000000000000000000 ) ) ;
#54 = ORIENTED_EDGE ( 'NONE', *, *, #43, .T. ) ;
#55 = EDGE_CURVE ( 'NONE', #84, #22, #261, .T. ) ;
#56 = DIRECTION ( 'NONE',  ( 0.000000000000000000, 0.000000000000000000, 1.000000000000000000 ) ) ;
#57 = ORIENTED_EDGE ( 'NONE', *, *, #107, .F. ) ;
#58 = CIRCLE ( 'NONE', #375, 7.500000000000000000 ) ;
#59 = ORIENTED_EDGE ( 'NONE', *, *, #377, .T. ) ;
#60 = CARTESIAN_POINT ( 'NONE',  ( 0.000000000000000000, 0.000000000000000000, 0.000000000000000000 ) ) ;
#61 = DIRECTION ( 'NONE',  ( -1.000000000000000000, -0.000000000000000000, -0.000000000000000000 ) ) ;
#62 = CIRCLE ( 'NONE', #174, 7.099999999999998757 ) ;
#63 = MECHANICAL_DESIGN_GEOMETRIC_PRESENTATION_REPRESENTATION (  '', ( #3 ), #304 ) ;
#64 = EDGE_CURVE ( 'NONE', #171, #290, #286, .T. ) ;
#65 = CARTESIAN_POINT ( 'NONE',  ( 0.000000000000000000, 0.000000000000000000, 7.499999999999998224 ) ) ;
#66 = CARTESIAN_POINT ( 'NONE',  ( 5.999999999999999112, 0.000000000000000000, 0.000000000000000000 ) ) ;
#67 = DIRECTION ( 'NONE',  ( 0.000000000000000000, 0.000000000000000000, 1.000000000000000000 ) ) ;
#68 = COLOUR_RGB ( '',0.7921568627450980005, 0.8196078431372548767, 0.9333333333333333481 ) ;
#69 = CARTESIAN_POINT ( 'NONE',  ( -6.735557395310440051E-17, 8.624287258031219589E-16, 6.984529946162085778 ) ) ;
#70 = CIRCLE ( 'NONE', #139, 6.984529946162085778 ) ;
#71 = ORIENTED_EDGE ( 'NONE', *, *, #277, .T. ) ;
#72 = CARTESIAN_POINT ( 'NONE',  ( 0.000000000000000000, 0.000000000000000000, 0.000000000000000000 ) ) ;
#73 = EDGE_LOOP ( 'NONE', ( #121, #271 ) ) ;
#74 = DIRECTION ( 'NONE',  ( 1.000000000000000000, 0.000000000000000000, 0.000000000000000000 ) ) ;
#75 = VERTEX_POINT ( 'NONE', #279 ) ;
#76 = LINE ( 'NONE', #49, #164 ) ;
#77 = ADVANCED_FACE ( 'NONE', ( #39 ), #337, .T. ) ;
#78 = VECTOR ( 'NONE', #287, 1000.000000000000000 ) ;
#79 = ORIENTED_EDGE ( 'NONE', *, *, #146, .F. ) ;
#80 = AXIS2_PLACEMENT_3D ( 'NONE', #72, #194, #256 ) ;
#81 = DIRECTION ( 'NONE',  ( 0.000000000000000000, 0.000000000000000000, -1.000000000000000000 ) ) ;
#82 = ORIENTED_EDGE ( 'NONE', *, *, #267, .T. ) ;
#83 = CARTESIAN_POINT ( 'NONE',  ( 0.000000000000000000, 7.347880794884119736E-16, -6.000000000000000000 ) ) ;
#84 = VERTEX_POINT ( 'NONE', #340 ) ;
#85 = AXIS2_PLACEMENT_3D ( 'NONE', #126, #13, #160 ) ;
#86 = PRODUCT_CONTEXT ( 'NONE', #197, 'mechanical' ) ;
#87 = ORIENTED_EDGE ( 'NONE', *, *, #277, .F. ) ;
#88 = DIRECTION ( 'NONE',  ( 0.000000000000000000, 0.000000000000000000, 1.000000000000000000 ) ) ;
#89 = DIRECTION ( 'NONE',  ( 0.000000000000000000, 0.000000000000000000, -1.000000000000000000 ) ) ;
#90 = ORIENTED_EDGE ( 'NONE', *, *, #185, .T. ) ;
#91 = ADVANCED_FACE ( 'NONE', ( #187 ), #40, .T. ) ;
#92 = AXIS2_PLACEMENT_3D ( 'NONE', #10, #127, #308 ) ;
#93 = CONICAL_SURFACE ( 'NONE', #243, 7.384529946162076364, 0.5235987755982950409 ) ;
#94 = PLANE ( 'NONE',  #368 ) ;
#95 = DIRECTION ( 'NONE',  ( 0.000000000000000000, 0.000000000000000000, 1.000000000000000000 ) ) ;
#96 = CARTESIAN_POINT ( 'NONE',  ( 6.000000000000000000, 8.694992273946207746E-16, -7.100000000000000533 ) ) ;
#97 = CLOSED_SHELL ( 'NONE', ( #91, #288, #241, #159, #282, #371, #335, #17, #102, #133, #77, #190, #128 ) ) ;
#98 = CIRCLE ( 'NONE', #219, 7.384529946162076364 ) ;
#99 = FACE_OUTER_BOUND ( 'NONE', #265, .T. ) ;
#100 = DIRECTION ( 'NONE',  ( -1.000000000000000000, -0.000000000000000000, -0.000000000000000000 ) ) ;
#101 = DIRECTION ( 'NONE',  ( 0.8660254037844418162, 6.123233995736699476E-17, 0.4999999999999945599 ) ) ;
#102 = ADVANCED_FACE ( 'NONE', ( #99 ), #240, .T. ) ;
#103 = CARTESIAN_POINT ( 'NONE',  ( 5.999999999999999112, 9.114145977690152885E-16, 7.384529946162076364 ) ) ;
#104 = EDGE_LOOP ( 'NONE', ( #82, #322 ) ) ;
#105 = CARTESIAN_POINT ( 'NONE',  ( 6.000000000000000000, 0.000000000000000000, 7.099999999999999645 ) ) ;
#106 = EDGE_LOOP ( 'NONE', ( #123, #42, #228, #48 ) ) ;
#107 = EDGE_CURVE ( 'NONE', #171, #221, #278, .T. ) ;
#108 = CYLINDRICAL_SURFACE ( 'NONE', #80, 6.000000000000000000 ) ;
#109 = EDGE_LOOP ( 'NONE', ( #373, #7, #54, #208 ) ) ;
#110 = CARTESIAN_POINT ( 'NONE',  ( 5.999999999999999112, 0.000000000000000000, 0.000000000000000000 ) ) ;
#111 = AXIS2_PLACEMENT_3D ( 'NONE', #60, #191, #212 ) ;
#112 = FACE_OUTER_BOUND ( 'NONE', #104, .T. ) ;
#113 = CARTESIAN_POINT ( 'NONE',  ( 27.00000000000000000, 0.000000000000000000, 0.000000000000000000 ) ) ;
#114 = ORIENTED_EDGE ( 'NONE', *, *, #227, .F. ) ;
#115 = EDGE_CURVE ( 'NONE', #367, #235, #58, .T. ) ;
#116 = CARTESIAN_POINT ( 'NONE',  ( 0.000000000000000000, 0.000000000000000000, 0.000000000000000000 ) ) ;
#117 = ORIENTED_EDGE ( 'NONE', *, *, #9, .T. ) ;
#118 = DIRECTION ( 'NONE',  ( 0.000000000000000000, 0.000000000000000000, -1.000000000000000000 ) ) ;
#119 = CARTESIAN_POINT ( 'NONE',  ( 0.1999999999999813594, 0.000000000000000000, 0.000000000000000000 ) ) ;
#120 = EDGE_CURVE ( 'NONE', #379, #23, #8, .T. ) ;
#121 = ORIENTED_EDGE ( 'NONE', *, *, #55, .F. ) ;
#122 = UNCERTAINTY_MEASURE_WITH_UNIT (LENGTH_MEASURE( 1.000000000000000082E-05 ), #223, 'distance_accuracy_value', 'NONE');
#123 = ORIENTED_EDGE ( 'NONE', *, *, #247, .F. ) ;
#124 = AXIS2_PLACEMENT_3D ( 'NONE', #272, #293, #239 ) ;
#125 = CIRCLE ( 'NONE', #345, 6.000000000000000000 ) ;
#126 = CARTESIAN_POINT ( 'NONE',  ( -6.735557395310440051E-17, 0.000000000000000000, 0.000000000000000000 ) ) ;
#127 = DIRECTION ( 'NONE',  ( 1.000000000000000000, 0.000000000000000000, 0.000000000000000000 ) ) ;
#128 = ADVANCED_FACE ( 'NONE', ( #248 ), #336, .T. ) ;
#129 = FACE_OUTER_BOUND ( 'NONE', #266, .T. ) ;
#130 = AXIS2_PLACEMENT_3D ( 'NONE', #195, #315, #284 ) ;
#131 = AXIS2_PLACEMENT_3D ( 'NONE', #116, #88, #53 ) ;
#132 = PRESENTATION_STYLE_ASSIGNMENT (( #12 ) ) ;
#133 = ADVANCED_FACE ( 'NONE', ( #305, #34 ), #94, .F. ) ;
#134 = CARTESIAN_POINT ( 'NONE',  ( 27.00000000000000000, 0.000000000000000000, 6.000000000000000000 ) ) ;
#135 = FACE_OUTER_BOUND ( 'NONE', #347, .T. ) ;
#136 = EDGE_LOOP ( 'NONE', ( #353, #259 ) ) ;
#137 = AXIS2_PLACEMENT_3D ( 'NONE', #161, #217, #95 ) ;
#138 = FACE_OUTER_BOUND ( 'NONE', #205, .T. ) ;
#139 = AXIS2_PLACEMENT_3D ( 'NONE', #374, #220, #320 ) ;
#140 = ORIENTED_EDGE ( 'NONE', *, *, #64, .F. ) ;
#141 = DIRECTION ( 'NONE',  ( -1.000000000000000000, -0.000000000000000000, -0.000000000000000000 ) ) ;
#142 = ORIENTED_EDGE ( 'NONE', *, *, #349, .T. ) ;
#143 = APPLICATION_PROTOCOL_DEFINITION ( 'draft international standard', 'automotive_design', 1998, #230 ) ;
#144 = ORIENTED_EDGE ( 'NONE', *, *, #2, .T. ) ;
#145 =( GEOMETRIC_REPRESENTATION_CONTEXT ( 3 ) GLOBAL_UNCERTAINTY_ASSIGNED_CONTEXT ( ( #358 ) ) GLOBAL_UNIT_ASSIGNED_CONTEXT ( ( #237, #352, #203 ) ) REPRESENTATION_CONTEXT ( 'NONE', 'WORKASPACE' ) );
#146 = EDGE_CURVE ( 'NONE', #367, #75, #361, .T. ) ;
#147 = ORIENTED_EDGE ( 'NONE', *, *, #152, .T. ) ;
#148 = EDGE_LOOP ( 'NONE', ( #6, #140 ) ) ;
#149 = CARTESIAN_POINT ( 'NONE',  ( 0.000000000000000000, 9.184850993605145972E-16, -7.499999999999998224 ) ) ;
#150 = DIRECTION ( 'NONE',  ( -0.000000000000000000, 0.000000000000000000, 1.000000000000000000 ) ) ;
#151 = AXIS2_PLACEMENT_3D ( 'NONE', #66, #74, #289 ) ;
#152 = EDGE_CURVE ( 'NONE', #290, #350, #38, .T. ) ;
#153 = CARTESIAN_POINT ( 'NONE',  ( -6.735557395310440051E-17, 7.099999999999998757, 0.000000000000000000 ) ) ;
#154 = ORIENTED_EDGE ( 'NONE', *, *, #146, .T. ) ;
#155 = ORIENTED_EDGE ( 'NONE', *, *, #310, .T. ) ;
#156 = CARTESIAN_POINT ( 'NONE',  ( 27.00000000000000000, 7.347880794884119736E-16, -6.000000000000000000 ) ) ;
#157 = AXIS2_PLACEMENT_3D ( 'NONE', #28, #357, #150 ) ;
#158 = DIRECTION ( 'NONE',  ( -1.000000000000000000, -0.000000000000000000, -0.000000000000000000 ) ) ;
#159 = ADVANCED_FACE ( 'NONE', ( #129 ), #184, .T. ) ;
#160 = DIRECTION ( 'NONE',  ( 0.000000000000000000, 0.000000000000000000, -1.000000000000000000 ) ) ;
#161 = CARTESIAN_POINT ( 'NONE',  ( 0.000000000000000000, 0.000000000000000000, 0.000000000000000000 ) ) ;
#162 = PRODUCT_RELATED_PRODUCT_CATEGORY ( 'part', '', ( #330 ) ) ;
#163 = AXIS2_PLACEMENT_3D ( 'NONE', #300, #61, #244 ) ;
#164 = VECTOR ( 'NONE', #341, 1000.000000000000227 ) ;
#165 = DIRECTION ( 'NONE',  ( 1.000000000000000000, 0.000000000000000000, 0.000000000000000000 ) ) ;
#166 = ORIENTED_EDGE ( 'NONE', *, *, #354, .F. ) ;
#167 = DIRECTION ( 'NONE',  ( -1.000000000000000000, -0.000000000000000000, -0.000000000000000000 ) ) ;
#168 = VERTEX_POINT ( 'NONE', #156 ) ;
#169 = LINE ( 'NONE', #291, #78 ) ;
#170 = ORIENTED_EDGE ( 'NONE', *, *, #306, .F. ) ;
#171 = VERTEX_POINT ( 'NONE', #96 ) ;
#172 = EDGE_CURVE ( 'NONE', #75, #23, #234, .T. ) ;
#173 = DIRECTION ( 'NONE',  ( -1.000000000000000000, -0.000000000000000000, -0.000000000000000000 ) ) ;
#174 = AXIS2_PLACEMENT_3D ( 'NONE', #119, #301, #89 ) ;
#175 = CARTESIAN_POINT ( 'NONE',  ( 27.00000000000000000, 0.000000000000000000, 0.000000000000000000 ) ) ;
#176 = FACE_OUTER_BOUND ( 'NONE', #193, .T. ) ;
#177 = VERTEX_POINT ( 'NONE', #302 ) ;
#178 = CARTESIAN_POINT ( 'NONE',  ( 5.999999999999999112, 0.000000000000000000, -7.384529946162076364 ) ) ;
#179 = FACE_OUTER_BOUND ( 'NONE', #136, .T. ) ;
#180 = DIRECTION ( 'NONE',  ( 0.000000000000000000, 0.000000000000000000, 1.000000000000000000 ) ) ;
#181 = AXIS2_PLACEMENT_3D ( 'NONE', #21, #141, #201 ) ;
#182 = CARTESIAN_POINT ( 'NONE',  ( 27.00000000000000000, 0.000000000000000000, 7.500000000000000000 ) ) ;
#183 = ORIENTED_EDGE ( 'NONE', *, *, #43, .F. ) ;
#184 = CYLINDRICAL_SURFACE ( 'NONE', #137, 7.499999999999998224 ) ;
#185 = EDGE_CURVE ( 'NONE', #350, #221, #233, .T. ) ;
#186 = DIRECTION ( 'NONE',  ( 0.000000000000000000, 0.000000000000000000, -1.000000000000000000 ) ) ;
#187 = FACE_OUTER_BOUND ( 'NONE', #263, .T. ) ;
#188 = MANIFOLD_SOLID_BREP ( 'Chanfrein1', #97 ) ;
#189 = SURFACE_STYLE_FILL_AREA ( #362 ) ;
#190 = ADVANCED_FACE ( 'NONE', ( #135 ), #45, .T. ) ;
#191 = DIRECTION ( 'NONE',  ( -1.000000000000000000, -0.000000000000000000, -0.000000000000000000 ) ) ;
#192 = LINE ( 'NONE', #311, #275 ) ;
#193 = EDGE_LOOP ( 'NONE', ( #370, #292, #222, #46 ) ) ;
#194 = DIRECTION ( 'NONE',  ( -1.000000000000000000, -0.000000000000000000, -0.000000000000000000 ) ) ;
#195 = CARTESIAN_POINT ( 'NONE',  ( 6.199999999999994849, 0.000000000000000000, 0.000000000000000000 ) ) ;
#196 = ORIENTED_EDGE ( 'NONE', *, *, #316, .T. ) ;
#197 = APPLICATION_CONTEXT ( 'automotive_design' ) ;
#198 = AXIS2_PLACEMENT_3D ( 'NONE', #175, #238, #56 ) ;
#199 = CIRCLE ( 'NONE', #342, 6.000000000000000000 ) ;
#200 = CYLINDRICAL_SURFACE ( 'NONE', #36, 7.099999999999998757 ) ;
#201 = DIRECTION ( 'NONE',  ( 0.000000000000000000, 0.000000000000000000, -1.000000000000000000 ) ) ;
#202 = ORIENTED_EDGE ( 'NONE', *, *, #354, .T. ) ;
#203 =( NAMED_UNIT ( * ) SI_UNIT ( $, .STERADIAN. ) SOLID_ANGLE_UNIT ( ) );
#204 = ORIENTED_EDGE ( 'NONE', *, *, #310, .F. ) ;
#205 = EDGE_LOOP ( 'NONE', ( #319, #196, #142, #114 ) ) ;
#206 = EDGE_CURVE ( 'NONE', #312, #350, #253, .T. ) ;
#207 = CYLINDRICAL_SURFACE ( 'NONE', #338, 6.000000000000000000 ) ;
#208 = ORIENTED_EDGE ( 'NONE', *, *, #152, .F. ) ;
#209 = ORIENTED_EDGE ( 'NONE', *, *, #206, .T. ) ;
#210 = CARTESIAN_POINT ( 'NONE',  ( 6.199999999999994849, 9.184850993605145972E-16, -7.499999999999998224 ) ) ;
#211 = PRODUCT_DEFINITION_CONTEXT ( 'detailed design', #230, 'design' ) ;
#212 = DIRECTION ( 'NONE',  ( 0.000000000000000000, 0.000000000000000000, 1.000000000000000000 ) ) ;
#213 = PRODUCT_DEFINITION ( 'UNKNOWN', '', #359, #211 ) ;
#214 = DIRECTION ( 'NONE',  ( 1.000000000000000000, 0.000000000000000000, 0.000000000000000000 ) ) ;
#215 = CARTESIAN_POINT ( 'NONE',  ( 6.199999999999994849, 0.000000000000000000, 0.000000000000000000 ) ) ;
#216 = EDGE_CURVE ( 'NONE', #23, #75, #249, .T. ) ;
#217 = DIRECTION ( 'NONE',  ( -1.000000000000000000, -0.000000000000000000, -0.000000000000000000 ) ) ;
#218 = DIRECTION ( 'NONE',  ( -1.000000000000000000, -0.000000000000000000, -0.000000000000000000 ) ) ;
#219 = AXIS2_PLACEMENT_3D ( 'NONE', #110, #167, #343 ) ;
#220 = DIRECTION ( 'NONE',  ( -1.000000000000000000, -0.000000000000000000, -0.000000000000000000 ) ) ;
#221 = VERTEX_POINT ( 'NONE', #44 ) ;
#222 = ORIENTED_EDGE ( 'NONE', *, *, #227, .T. ) ;
#223 =( LENGTH_UNIT ( ) NAMED_UNIT ( * ) SI_UNIT ( .MILLI., .METRE. ) );
#224 = CIRCLE ( 'NONE', #323, 7.099999999999999645 ) ;
#225 = VECTOR ( 'NONE', #376, 1000.000000000000000 ) ;
#226 = DIRECTION ( 'NONE',  ( 1.000000000000000000, 0.000000000000000000, 0.000000000000000000 ) ) ;
#227 = EDGE_CURVE ( 'NONE', #285, #84, #169, .T. ) ;
#228 = ORIENTED_EDGE ( 'NONE', *, *, #216, .F. ) ;
#229 = LINE ( 'NONE', #149, #225 ) ;
#230 = APPLICATION_CONTEXT ( 'automotive_design' ) ;
#231 = ORIENTED_EDGE ( 'NONE', *, *, #64, .T. ) ;
#232 = DIRECTION ( 'NONE',  ( -1.000000000000000000, -0.000000000000000000, -0.000000000000000000 ) ) ;
#233 = CIRCLE ( 'NONE', #255, 7.099999999999998757 ) ;
#234 = CIRCLE ( 'NONE', #242, 7.499999999999998224 ) ;
#235 = VERTEX_POINT ( 'NONE', #366 ) ;
#236 = EDGE_CURVE ( 'NONE', #312, #177, #298, .T. ) ;
#237 =( LENGTH_UNIT ( ) NAMED_UNIT ( * ) SI_UNIT ( .MILLI., .METRE. ) );
#238 = DIRECTION ( 'NONE',  ( -1.000000000000000000, -0.000000000000000000, -0.000000000000000000 ) ) ;
#239 = DIRECTION ( 'NONE',  ( 0.000000000000000000, 0.000000000000000000, 1.000000000000000000 ) ) ;
#240 = CYLINDRICAL_SURFACE ( 'NONE', #111, 7.499999999999998224 ) ;
#241 = ADVANCED_FACE ( 'NONE', ( #16 ), #200, .T. ) ;
#242 = AXIS2_PLACEMENT_3D ( 'NONE', #215, #214, #365 ) ;
#243 = AXIS2_PLACEMENT_3D ( 'NONE', #372, #226, #344 ) ;
#244 = DIRECTION ( 'NONE',  ( 0.000000000000000000, 0.000000000000000000, 1.000000000000000000 ) ) ;
#245 = FILL_AREA_STYLE_COLOUR ( '', #68 ) ;
#246 = ADVANCED_BREP_SHAPE_REPRESENTATION ( 'Tube cassette bikap V1d', ( #188, #131 ), #145 ) ;
#247 = EDGE_CURVE ( 'NONE', #254, #379, #250, .T. ) ;
#248 = FACE_OUTER_BOUND ( 'NONE', #324, .T. ) ;
#249 = CIRCLE ( 'NONE', #130, 7.499999999999998224 ) ;
#250 = CIRCLE ( 'NONE', #262, 7.384529946162076364 ) ;
#251 = DIRECTION ( 'NONE',  ( 0.8660254037844405950, 0.000000000000000000, -0.4999999999999966693 ) ) ;
#252 = DIRECTION ( 'NONE',  ( 0.8660254037844418162, 0.000000000000000000, -0.4999999999999945599 ) ) ;
#253 = LINE ( 'NONE', #20, #19 ) ;
#254 = VERTEX_POINT ( 'NONE', #103 ) ;
#255 = AXIS2_PLACEMENT_3D ( 'NONE', #334, #339, #186 ) ;
#256 = DIRECTION ( 'NONE',  ( 0.000000000000000000, 0.000000000000000000, 1.000000000000000000 ) ) ;
#257 = ORIENTED_EDGE ( 'NONE', *, *, #206, .F. ) ;
#258 = CARTESIAN_POINT ( 'NONE',  ( 0.000000000000000000, 0.000000000000000000, 0.000000000000000000 ) ) ;
#259 = ORIENTED_EDGE ( 'NONE', *, *, #9, .F. ) ;
#260 = DIRECTION ( 'NONE',  ( -1.000000000000000000, -0.000000000000000000, -0.000000000000000000 ) ) ;
#261 = CIRCLE ( 'NONE', #29, 6.000000000000000000 ) ;
#262 = AXIS2_PLACEMENT_3D ( 'NONE', #32, #14, #81 ) ;
#263 = EDGE_LOOP ( 'NONE', ( #295, #209, #183, #204 ) ) ;
#264 = DIRECTION ( 'NONE',  ( 0.000000000000000000, 0.000000000000000000, 1.000000000000000000 ) ) ;
#265 = EDGE_LOOP ( 'NONE', ( #166, #117, #154, #314 ) ) ;
#266 = EDGE_LOOP ( 'NONE', ( #1, #202, #50, #79 ) ) ;
#267 = EDGE_CURVE ( 'NONE', #177, #312, #70, .T. ) ;
#268 = DIRECTION ( 'NONE',  ( -1.000000000000000000, -0.000000000000000000, -0.000000000000000000 ) ) ;
#269 = CARTESIAN_POINT ( 'NONE',  ( 6.000000000000000000, 0.000000000000000000, 0.000000000000000000 ) ) ;
#270 = DIRECTION ( 'NONE',  ( -1.000000000000000000, -0.000000000000000000, -0.000000000000000000 ) ) ;
#271 = ORIENTED_EDGE ( 'NONE', *, *, #349, .F. ) ;
#272 = CARTESIAN_POINT ( 'NONE',  ( 27.00000000000000000, 0.000000000000000000, 0.000000000000000000 ) ) ;
#273 = CARTESIAN_POINT ( 'NONE',  ( 0.000000000000000000, 8.694992273946205774E-16, -7.099999999999998757 ) ) ;
#274 = VECTOR ( 'NONE', #251, 1000.000000000000227 ) ;
#275 = VECTOR ( 'NONE', #173, 1000.000000000000000 ) ;
#276 = DIRECTION ( 'NONE',  ( 0.000000000000000000, 0.000000000000000000, -1.000000000000000000 ) ) ;
#277 = EDGE_CURVE ( 'NONE', #379, #254, #98, .T. ) ;
#278 = LINE ( 'NONE', #273, #309 ) ;
#279 = CARTESIAN_POINT ( 'NONE',  ( 6.199999999999994849, 0.000000000000000000, 7.499999999999998224 ) ) ;
#280 = AXIS2_PLACEMENT_3D ( 'NONE', #364, #158, #67 ) ;
#281 = CARTESIAN_POINT ( 'NONE',  ( 0.000000000000000000, 0.000000000000000000, 7.099999999999998757 ) ) ;
#282 = ADVANCED_FACE ( 'NONE', ( #138 ), #108, .F. ) ;
#283 = DIRECTION ( 'NONE',  ( 0.000000000000000000, 0.000000000000000000, 1.000000000000000000 ) ) ;
#284 = DIRECTION ( 'NONE',  ( 0.000000000000000000, 0.000000000000000000, -1.000000000000000000 ) ) ;
#285 = VERTEX_POINT ( 'NONE', #134 ) ;
#286 = CIRCLE ( 'NONE', #163, 7.099999999999999645 ) ;
#287 = DIRECTION ( 'NONE',  ( -1.000000000000000000, -0.000000000000000000, -0.000000000000000000 ) ) ;
#288 = ADVANCED_FACE ( 'NONE', ( #369 ), #93, .T. ) ;
#289 = DIRECTION ( 'NONE',  ( 0.000000000000000000, 0.000000000000000000, -1.000000000000000000 ) ) ;
#290 = VERTEX_POINT ( 'NONE', #105 ) ;
#291 = CARTESIAN_POINT ( 'NONE',  ( 0.000000000000000000, 0.000000000000000000, 6.000000000000000000 ) ) ;
#292 = ORIENTED_EDGE ( 'NONE', *, *, #377, .F. ) ;
#293 = DIRECTION ( 'NONE',  ( -1.000000000000000000, -0.000000000000000000, -0.000000000000000000 ) ) ;
#294 = CARTESIAN_POINT ( 'NONE',  ( 0.000000000000000000, 0.000000000000000000, 0.000000000000000000 ) ) ;
#295 = ORIENTED_EDGE ( 'NONE', *, *, #236, .F. ) ;
#296 = FACE_BOUND ( 'NONE', #73, .T. ) ;
#297 = ORIENTED_EDGE ( 'NONE', *, *, #172, .F. ) ;
#298 = CIRCLE ( 'NONE', #181, 6.984529946162085778 ) ;
#299 = VECTOR ( 'NONE', #252, 1000.000000000000000 ) ;
#300 = CARTESIAN_POINT ( 'NONE',  ( 6.000000000000000000, 0.000000000000000000, 0.000000000000000000 ) ) ;
#301 = DIRECTION ( 'NONE',  ( 1.000000000000000000, 0.000000000000000000, 0.000000000000000000 ) ) ;
#302 = CARTESIAN_POINT ( 'NONE',  ( -6.735557395310440051E-17, 0.000000000000000000, -6.984529946162085778 ) ) ;
#303 = DIRECTION ( 'NONE',  ( -1.000000000000000000, -0.000000000000000000, -0.000000000000000000 ) ) ;
#304 =( GEOMETRIC_REPRESENTATION_CONTEXT ( 3 ) GLOBAL_UNCERTAINTY_ASSIGNED_CONTEXT ( ( #122 ) ) GLOBAL_UNIT_ASSIGNED_CONTEXT ( ( #223, #313, #346 ) ) REPRESENTATION_CONTEXT ( 'NONE', 'WORKASPACE' ) );
#305 = FACE_OUTER_BOUND ( 'NONE', #51, .T. ) ;
#306 = EDGE_CURVE ( 'NONE', #254, #75, #76, .T. ) ;
#307 = SURFACE_SIDE_STYLE ('',( #189 ) ) ;
#308 = DIRECTION ( 'NONE',  ( 0.000000000000000000, 0.000000000000000000, -1.000000000000000000 ) ) ;
#309 = VECTOR ( 'NONE', #100, 1000.000000000000000 ) ;
#310 = EDGE_CURVE ( 'NONE', #177, #221, #318, .T. ) ;
#311 = CARTESIAN_POINT ( 'NONE',  ( 0.000000000000000000, 7.347880794884119736E-16, -6.000000000000000000 ) ) ;
#312 = VERTEX_POINT ( 'NONE', #69 ) ;
#313 =( NAMED_UNIT ( * ) PLANE_ANGLE_UNIT ( ) SI_UNIT ( $, .RADIAN. ) );
#314 = ORIENTED_EDGE ( 'NONE', *, *, #172, .T. ) ;
#315 = DIRECTION ( 'NONE',  ( 1.000000000000000000, 0.000000000000000000, 0.000000000000000000 ) ) ;
#316 = EDGE_CURVE ( 'NONE', #168, #22, #192, .T. ) ;
#317 = CIRCLE ( 'NONE', #198, 6.000000000000000000 ) ;
#318 = LINE ( 'NONE', #47, #299 ) ;
#319 = ORIENTED_EDGE ( 'NONE', *, *, #2, .F. ) ;
#320 = DIRECTION ( 'NONE',  ( 0.000000000000000000, 0.000000000000000000, -1.000000000000000000 ) ) ;
#321 = ORIENTED_EDGE ( 'NONE', *, *, #247, .T. ) ;
#322 = ORIENTED_EDGE ( 'NONE', *, *, #236, .T. ) ;
#323 = AXIS2_PLACEMENT_3D ( 'NONE', #269, #5, #25 ) ;
#324 = EDGE_LOOP ( 'NONE', ( #257, #26, #155, #15 ) ) ;
#325 = DIRECTION ( 'NONE',  ( 0.000000000000000000, 0.000000000000000000, 1.000000000000000000 ) ) ;
#326 = EDGE_LOOP ( 'NONE', ( #57, #231, #147, #90 ) ) ;
#327 = APPLICATION_PROTOCOL_DEFINITION ( 'draft international standard', 'automotive_design', 1998, #197 ) ;
#328 = CARTESIAN_POINT ( 'NONE',  ( 0.000000000000000000, 0.000000000000000000, 0.000000000000000000 ) ) ;
#329 = SHAPE_DEFINITION_REPRESENTATION ( #52, #246 ) ;
#330 = PRODUCT ( 'Tube cassette bikap V1d', 'Tube cassette bikap V1d', '', ( #86 ) ) ;
#331 = AXIS2_PLACEMENT_3D ( 'NONE', #153, #4, #118 ) ;
#332 = DIRECTION ( 'NONE',  ( -1.000000000000000000, -0.000000000000000000, -0.000000000000000000 ) ) ;
#333 = DIRECTION ( 'NONE',  ( -1.000000000000000000, -0.000000000000000000, -0.000000000000000000 ) ) ;
#334 = CARTESIAN_POINT ( 'NONE',  ( 0.1999999999999813594, 0.000000000000000000, 0.000000000000000000 ) ) ;
#335 = ADVANCED_FACE ( 'NONE', ( #176 ), #207, .F. ) ;
#336 = CONICAL_SURFACE ( 'NONE', #85, 6.984529946162085778, 0.5235987755982925984 ) ;
#337 = CYLINDRICAL_SURFACE ( 'NONE', #280, 7.099999999999998757 ) ;
#338 = AXIS2_PLACEMENT_3D ( 'NONE', #294, #270, #264 ) ;
#339 = DIRECTION ( 'NONE',  ( 1.000000000000000000, 0.000000000000000000, 0.000000000000000000 ) ) ;
#340 = CARTESIAN_POINT ( 'NONE',  ( 0.000000000000000000, 0.000000000000000000, 6.000000000000000000 ) ) ;
#341 = DIRECTION ( 'NONE',  ( 0.8660254037844405950, 6.123233995736725360E-17, 0.4999999999999966693 ) ) ;
#342 = AXIS2_PLACEMENT_3D ( 'NONE', #113, #232, #27 ) ;
#343 = DIRECTION ( 'NONE',  ( 0.000000000000000000, 0.000000000000000000, -1.000000000000000000 ) ) ;
#344 = DIRECTION ( 'NONE',  ( 0.000000000000000000, 0.000000000000000000, -1.000000000000000000 ) ) ;
#345 = AXIS2_PLACEMENT_3D ( 'NONE', #30, #268, #325 ) ;
#346 =( NAMED_UNIT ( * ) SI_UNIT ( $, .STERADIAN. ) SOLID_ANGLE_UNIT ( ) );
#347 = EDGE_LOOP ( 'NONE', ( #170, #87, #355, #297 ) ) ;
#348 = FACE_BOUND ( 'NONE', #18, .T. ) ;
#349 = EDGE_CURVE ( 'NONE', #22, #84, #125, .T. ) ;
#350 = VERTEX_POINT ( 'NONE', #356 ) ;
#351 = PRESENTATION_LAYER_ASSIGNMENT (  '', '', ( #3 ) ) ;
#352 =( NAMED_UNIT ( * ) PLANE_ANGLE_UNIT ( ) SI_UNIT ( $, .RADIAN. ) );
#353 = ORIENTED_EDGE ( 'NONE', *, *, #115, .F. ) ;
#354 = EDGE_CURVE ( 'NONE', #235, #23, #229, .T. ) ;
#355 = ORIENTED_EDGE ( 'NONE', *, *, #120, .T. ) ;
#356 = CARTESIAN_POINT ( 'NONE',  ( 0.1999999999999813594, 0.000000000000000000, 7.099999999999998757 ) ) ;
#357 = DIRECTION ( 'NONE',  ( -1.000000000000000000, 0.000000000000000000, -0.000000000000000000 ) ) ;
#358 = UNCERTAINTY_MEASURE_WITH_UNIT (LENGTH_MEASURE( 1.000000000000000082E-05 ), #237, 'distance_accuracy_value', 'NONE');
#359 = PRODUCT_DEFINITION_FORMATION_WITH_SPECIFIED_SOURCE ( 'ANY', '', #330, .NOT_KNOWN. ) ;
#360 = DIRECTION ( 'NONE',  ( 0.000000000000000000, 0.000000000000000000, 1.000000000000000000 ) ) ;
#361 = LINE ( 'NONE', #65, #24 ) ;
#362 = FILL_AREA_STYLE ('',( #245 ) ) ;
#363 = VECTOR ( 'NONE', #333, 1000.000000000000000 ) ;
#364 = CARTESIAN_POINT ( 'NONE',  ( 0.000000000000000000, 0.000000000000000000, 0.000000000000000000 ) ) ;
#365 = DIRECTION ( 'NONE',  ( 0.000000000000000000, 0.000000000000000000, -1.000000000000000000 ) ) ;
#366 = CARTESIAN_POINT ( 'NONE',  ( 27.00000000000000000, 9.184850993605147944E-16, -7.500000000000000000 ) ) ;
#367 = VERTEX_POINT ( 'NONE', #182 ) ;
#368 = AXIS2_PLACEMENT_3D ( 'NONE', #37, #165, #276 ) ;
#369 = FACE_OUTER_BOUND ( 'NONE', #106, .T. ) ;
#370 = ORIENTED_EDGE ( 'NONE', *, *, #316, .F. ) ;
#371 = ADVANCED_FACE ( 'NONE', ( #112, #296 ), #378, .F. ) ;
#372 = CARTESIAN_POINT ( 'NONE',  ( 5.999999999999999112, 0.000000000000000000, 0.000000000000000000 ) ) ;
#373 = ORIENTED_EDGE ( 'NONE', *, *, #33, .T. ) ;
#374 = CARTESIAN_POINT ( 'NONE',  ( -6.735557395310440051E-17, 0.000000000000000000, 0.000000000000000000 ) ) ;
#375 = AXIS2_PLACEMENT_3D ( 'NONE', #41, #218, #360 ) ;
#376 = DIRECTION ( 'NONE',  ( -1.000000000000000000, -0.000000000000000000, -0.000000000000000000 ) ) ;
#377 = EDGE_CURVE ( 'NONE', #285, #168, #199, .T. ) ;
#378 = PLANE ( 'NONE',  #331 ) ;
#379 = VERTEX_POINT ( 'NONE', #178 ) ;
ENDSEC;
END-ISO-10303-21;
