ISO-10303-21;
HEADER;
/* Generated by software containing ST-Developer
 * from STEP Tools, Inc. (www.steptools.com) 
 */

FILE_DESCRIPTION(
/* description */ ('',
'CAx-IF Rec.Pracs.---Representation and Presentation of Product Manufa
cturing Information (PMI)---4.0---2014-10-13'),
/* implementation_level */ '2;1');

FILE_NAME(
/* name */ 'plaque frein kart avec support v7.step',
/* time_stamp */ '2025-01-21T14:55:04+01:00',
/* author */ (''),
/* organization */ (''),
/* preprocessor_version */ 'ST-DEVELOPER v20',
/* originating_system */ 'Autodesk Translation Framework v13.20.0.188',

/* authorisation */ '');

FILE_SCHEMA (('AP242_MANAGED_MODEL_BASED_3D_ENGINEERING_MIM_LF { 1 0 10303 442 1 1 4 }'));
ENDSEC;

DATA;
#10=MECHANICAL_DESIGN_GEOMETRIC_PRESENTATION_REPRESENTATION('',(#19,#20),
#468);
#11=ITEM_DEFINED_TRANSFORMATION($,$,#276,#311);
#12=(
REPRESENTATION_RELATIONSHIP($,$,#478,#477)
REPRESENTATION_RELATIONSHIP_WITH_TRANSFORMATION(#11)
SHAPE_REPRESENTATION_RELATIONSHIP()
);
#13=CONTEXT_DEPENDENT_SHAPE_REPRESENTATION(#12,#476);
#14=NEXT_ASSEMBLY_USAGE_OCCURRENCE('Composant1:1','Composant1:1',
'Composant1:1',#480,#481,'Composant1:1');
#15=SHAPE_REPRESENTATION_RELATIONSHIP('SRR','None',#478,#17);
#16=SHAPE_REPRESENTATION_RELATIONSHIP('SRR','None',#477,#18);
#17=ADVANCED_BREP_SHAPE_REPRESENTATION('',(#21),#467);
#18=ADVANCED_BREP_SHAPE_REPRESENTATION('',(#22),#466);
#19=STYLED_ITEM('',(#492),#21);
#20=STYLED_ITEM('',(#491),#22);
#21=MANIFOLD_SOLID_BREP('Corps3',#261);
#22=MANIFOLD_SOLID_BREP('Corps3',#262);
#23=FACE_BOUND('',#59,.T.);
#24=FACE_BOUND('',#60,.T.);
#25=FACE_BOUND('',#61,.T.);
#26=FACE_BOUND('',#62,.T.);
#27=FACE_BOUND('',#63,.T.);
#28=FACE_BOUND('',#64,.T.);
#29=FACE_BOUND('',#65,.T.);
#30=FACE_BOUND('',#74,.T.);
#31=FACE_BOUND('',#75,.T.);
#32=FACE_BOUND('',#76,.T.);
#33=FACE_BOUND('',#77,.T.);
#34=FACE_BOUND('',#78,.T.);
#35=FACE_BOUND('',#79,.T.);
#36=FACE_BOUND('',#80,.T.);
#37=FACE_BOUND('',#84,.T.);
#38=FACE_BOUND('',#86,.T.);
#39=PLANE('',#280);
#40=PLANE('',#302);
#41=PLANE('',#309);
#42=PLANE('',#310);
#43=FACE_OUTER_BOUND('',#57,.T.);
#44=FACE_OUTER_BOUND('',#58,.T.);
#45=FACE_OUTER_BOUND('',#66,.T.);
#46=FACE_OUTER_BOUND('',#67,.T.);
#47=FACE_OUTER_BOUND('',#68,.T.);
#48=FACE_OUTER_BOUND('',#69,.T.);
#49=FACE_OUTER_BOUND('',#70,.T.);
#50=FACE_OUTER_BOUND('',#71,.T.);
#51=FACE_OUTER_BOUND('',#72,.T.);
#52=FACE_OUTER_BOUND('',#73,.T.);
#53=FACE_OUTER_BOUND('',#81,.T.);
#54=FACE_OUTER_BOUND('',#82,.T.);
#55=FACE_OUTER_BOUND('',#83,.T.);
#56=FACE_OUTER_BOUND('',#85,.T.);
#57=EDGE_LOOP('',(#177,#178,#179,#180));
#58=EDGE_LOOP('',(#181));
#59=EDGE_LOOP('',(#182));
#60=EDGE_LOOP('',(#183));
#61=EDGE_LOOP('',(#184));
#62=EDGE_LOOP('',(#185));
#63=EDGE_LOOP('',(#186));
#64=EDGE_LOOP('',(#187));
#65=EDGE_LOOP('',(#188));
#66=EDGE_LOOP('',(#189,#190,#191,#192));
#67=EDGE_LOOP('',(#193,#194,#195,#196));
#68=EDGE_LOOP('',(#197,#198,#199,#200));
#69=EDGE_LOOP('',(#201,#202,#203,#204));
#70=EDGE_LOOP('',(#205,#206,#207,#208));
#71=EDGE_LOOP('',(#209,#210,#211,#212));
#72=EDGE_LOOP('',(#213,#214,#215,#216));
#73=EDGE_LOOP('',(#217));
#74=EDGE_LOOP('',(#218));
#75=EDGE_LOOP('',(#219));
#76=EDGE_LOOP('',(#220));
#77=EDGE_LOOP('',(#221));
#78=EDGE_LOOP('',(#222));
#79=EDGE_LOOP('',(#223));
#80=EDGE_LOOP('',(#224));
#81=EDGE_LOOP('',(#225,#226,#227,#228));
#82=EDGE_LOOP('',(#229,#230,#231,#232));
#83=EDGE_LOOP('',(#233));
#84=EDGE_LOOP('',(#234));
#85=EDGE_LOOP('',(#235));
#86=EDGE_LOOP('',(#236));
#87=LINE('',#402,#97);
#88=LINE('',#421,#98);
#89=LINE('',#425,#99);
#90=LINE('',#429,#100);
#91=LINE('',#433,#101);
#92=LINE('',#437,#102);
#93=LINE('',#441,#103);
#94=LINE('',#445,#104);
#95=LINE('',#452,#105);
#96=LINE('',#458,#106);
#97=VECTOR('',#320,0.0131);
#98=VECTOR('',#341,0.00357800256648833);
#99=VECTOR('',#346,0.00339969426103692);
#100=VECTOR('',#351,0.00360555132919089);
#101=VECTOR('',#356,0.00357928333184184);
#102=VECTOR('',#361,0.00371838658191374);
#103=VECTOR('',#366,0.0035);
#104=VECTOR('',#371,0.035);
#105=VECTOR('',#380,0.008325);
#106=VECTOR('',#387,0.0131);
#107=CIRCLE('',#278,0.0131);
#108=CIRCLE('',#279,0.0131);
#109=CIRCLE('',#281,0.035);
#110=CIRCLE('',#282,0.00357800256648833);
#111=CIRCLE('',#283,0.00339969426103692);
#112=CIRCLE('',#284,0.00360555132919089);
#113=CIRCLE('',#285,0.00357928333184184);
#114=CIRCLE('',#286,0.00371838658191374);
#115=CIRCLE('',#287,0.0035);
#116=CIRCLE('',#289,0.00357800256648833);
#117=CIRCLE('',#291,0.00339969426103692);
#118=CIRCLE('',#293,0.00360555132919089);
#119=CIRCLE('',#295,0.00357928333184184);
#120=CIRCLE('',#297,0.00371838658191374);
#121=CIRCLE('',#299,0.0035);
#122=CIRCLE('',#301,0.035);
#123=CIRCLE('',#304,0.008325);
#124=CIRCLE('',#305,0.008325);
#125=CIRCLE('',#307,0.0131);
#126=CIRCLE('',#308,0.0131);
#127=VERTEX_POINT('',#399);
#128=VERTEX_POINT('',#401);
#129=VERTEX_POINT('',#405);
#130=VERTEX_POINT('',#407);
#131=VERTEX_POINT('',#409);
#132=VERTEX_POINT('',#411);
#133=VERTEX_POINT('',#413);
#134=VERTEX_POINT('',#415);
#135=VERTEX_POINT('',#417);
#136=VERTEX_POINT('',#420);
#137=VERTEX_POINT('',#424);
#138=VERTEX_POINT('',#428);
#139=VERTEX_POINT('',#432);
#140=VERTEX_POINT('',#436);
#141=VERTEX_POINT('',#440);
#142=VERTEX_POINT('',#444);
#143=VERTEX_POINT('',#449);
#144=VERTEX_POINT('',#451);
#145=VERTEX_POINT('',#455);
#146=VERTEX_POINT('',#457);
#147=EDGE_CURVE('',#127,#127,#107,.T.);
#148=EDGE_CURVE('',#127,#128,#87,.T.);
#149=EDGE_CURVE('',#128,#128,#108,.T.);
#150=EDGE_CURVE('',#129,#129,#109,.T.);
#151=EDGE_CURVE('',#130,#130,#110,.T.);
#152=EDGE_CURVE('',#131,#131,#111,.T.);
#153=EDGE_CURVE('',#132,#132,#112,.T.);
#154=EDGE_CURVE('',#133,#133,#113,.T.);
#155=EDGE_CURVE('',#134,#134,#114,.T.);
#156=EDGE_CURVE('',#135,#135,#115,.T.);
#157=EDGE_CURVE('',#130,#136,#88,.T.);
#158=EDGE_CURVE('',#136,#136,#116,.T.);
#159=EDGE_CURVE('',#131,#137,#89,.T.);
#160=EDGE_CURVE('',#137,#137,#117,.T.);
#161=EDGE_CURVE('',#132,#138,#90,.T.);
#162=EDGE_CURVE('',#138,#138,#118,.T.);
#163=EDGE_CURVE('',#133,#139,#91,.T.);
#164=EDGE_CURVE('',#139,#139,#119,.T.);
#165=EDGE_CURVE('',#134,#140,#92,.T.);
#166=EDGE_CURVE('',#140,#140,#120,.T.);
#167=EDGE_CURVE('',#135,#141,#93,.T.);
#168=EDGE_CURVE('',#141,#141,#121,.T.);
#169=EDGE_CURVE('',#129,#142,#94,.T.);
#170=EDGE_CURVE('',#142,#142,#122,.T.);
#171=EDGE_CURVE('',#143,#143,#123,.T.);
#172=EDGE_CURVE('',#143,#144,#95,.T.);
#173=EDGE_CURVE('',#144,#144,#124,.T.);
#174=EDGE_CURVE('',#145,#145,#125,.T.);
#175=EDGE_CURVE('',#145,#146,#96,.T.);
#176=EDGE_CURVE('',#146,#146,#126,.T.);
#177=ORIENTED_EDGE('',*,*,#147,.F.);
#178=ORIENTED_EDGE('',*,*,#148,.T.);
#179=ORIENTED_EDGE('',*,*,#149,.F.);
#180=ORIENTED_EDGE('',*,*,#148,.F.);
#181=ORIENTED_EDGE('',*,*,#150,.T.);
#182=ORIENTED_EDGE('',*,*,#147,.T.);
#183=ORIENTED_EDGE('',*,*,#151,.T.);
#184=ORIENTED_EDGE('',*,*,#152,.T.);
#185=ORIENTED_EDGE('',*,*,#153,.T.);
#186=ORIENTED_EDGE('',*,*,#154,.T.);
#187=ORIENTED_EDGE('',*,*,#155,.T.);
#188=ORIENTED_EDGE('',*,*,#156,.T.);
#189=ORIENTED_EDGE('',*,*,#151,.F.);
#190=ORIENTED_EDGE('',*,*,#157,.T.);
#191=ORIENTED_EDGE('',*,*,#158,.F.);
#192=ORIENTED_EDGE('',*,*,#157,.F.);
#193=ORIENTED_EDGE('',*,*,#152,.F.);
#194=ORIENTED_EDGE('',*,*,#159,.T.);
#195=ORIENTED_EDGE('',*,*,#160,.F.);
#196=ORIENTED_EDGE('',*,*,#159,.F.);
#197=ORIENTED_EDGE('',*,*,#153,.F.);
#198=ORIENTED_EDGE('',*,*,#161,.T.);
#199=ORIENTED_EDGE('',*,*,#162,.F.);
#200=ORIENTED_EDGE('',*,*,#161,.F.);
#201=ORIENTED_EDGE('',*,*,#154,.F.);
#202=ORIENTED_EDGE('',*,*,#163,.T.);
#203=ORIENTED_EDGE('',*,*,#164,.F.);
#204=ORIENTED_EDGE('',*,*,#163,.F.);
#205=ORIENTED_EDGE('',*,*,#155,.F.);
#206=ORIENTED_EDGE('',*,*,#165,.T.);
#207=ORIENTED_EDGE('',*,*,#166,.F.);
#208=ORIENTED_EDGE('',*,*,#165,.F.);
#209=ORIENTED_EDGE('',*,*,#156,.F.);
#210=ORIENTED_EDGE('',*,*,#167,.T.);
#211=ORIENTED_EDGE('',*,*,#168,.F.);
#212=ORIENTED_EDGE('',*,*,#167,.F.);
#213=ORIENTED_EDGE('',*,*,#150,.F.);
#214=ORIENTED_EDGE('',*,*,#169,.T.);
#215=ORIENTED_EDGE('',*,*,#170,.T.);
#216=ORIENTED_EDGE('',*,*,#169,.F.);
#217=ORIENTED_EDGE('',*,*,#170,.F.);
#218=ORIENTED_EDGE('',*,*,#149,.T.);
#219=ORIENTED_EDGE('',*,*,#158,.T.);
#220=ORIENTED_EDGE('',*,*,#160,.T.);
#221=ORIENTED_EDGE('',*,*,#162,.T.);
#222=ORIENTED_EDGE('',*,*,#164,.T.);
#223=ORIENTED_EDGE('',*,*,#166,.T.);
#224=ORIENTED_EDGE('',*,*,#168,.T.);
#225=ORIENTED_EDGE('',*,*,#171,.F.);
#226=ORIENTED_EDGE('',*,*,#172,.T.);
#227=ORIENTED_EDGE('',*,*,#173,.F.);
#228=ORIENTED_EDGE('',*,*,#172,.F.);
#229=ORIENTED_EDGE('',*,*,#174,.F.);
#230=ORIENTED_EDGE('',*,*,#175,.T.);
#231=ORIENTED_EDGE('',*,*,#176,.T.);
#232=ORIENTED_EDGE('',*,*,#175,.F.);
#233=ORIENTED_EDGE('',*,*,#174,.T.);
#234=ORIENTED_EDGE('',*,*,#171,.T.);
#235=ORIENTED_EDGE('',*,*,#176,.F.);
#236=ORIENTED_EDGE('',*,*,#173,.T.);
#237=CYLINDRICAL_SURFACE('',#277,0.0131);
#238=CYLINDRICAL_SURFACE('',#288,0.00357800256648833);
#239=CYLINDRICAL_SURFACE('',#290,0.00339969426103692);
#240=CYLINDRICAL_SURFACE('',#292,0.00360555132919089);
#241=CYLINDRICAL_SURFACE('',#294,0.00357928333184184);
#242=CYLINDRICAL_SURFACE('',#296,0.00371838658191374);
#243=CYLINDRICAL_SURFACE('',#298,0.0035);
#244=CYLINDRICAL_SURFACE('',#300,0.035);
#245=CYLINDRICAL_SURFACE('',#303,0.008325);
#246=CYLINDRICAL_SURFACE('',#306,0.0131);
#247=ADVANCED_FACE('',(#43),#237,.F.);
#248=ADVANCED_FACE('',(#44,#23,#24,#25,#26,#27,#28,#29),#39,.T.);
#249=ADVANCED_FACE('',(#45),#238,.F.);
#250=ADVANCED_FACE('',(#46),#239,.F.);
#251=ADVANCED_FACE('',(#47),#240,.F.);
#252=ADVANCED_FACE('',(#48),#241,.F.);
#253=ADVANCED_FACE('',(#49),#242,.F.);
#254=ADVANCED_FACE('',(#50),#243,.F.);
#255=ADVANCED_FACE('',(#51),#244,.T.);
#256=ADVANCED_FACE('',(#52,#30,#31,#32,#33,#34,#35,#36),#40,.F.);
#257=ADVANCED_FACE('',(#53),#245,.F.);
#258=ADVANCED_FACE('',(#54),#246,.T.);
#259=ADVANCED_FACE('',(#55,#37),#41,.T.);
#260=ADVANCED_FACE('',(#56,#38),#42,.F.);
#261=CLOSED_SHELL('',(#247,#248,#249,#250,#251,#252,#253,#254,#255,#256));
#262=CLOSED_SHELL('',(#257,#258,#259,#260));
#263=DERIVED_UNIT_ELEMENT(#265,1.);
#264=DERIVED_UNIT_ELEMENT(#469,-3.);
#265=(
MASS_UNIT()
NAMED_UNIT(*)
SI_UNIT(.KILO.,.GRAM.)
);
#266=DERIVED_UNIT((#263,#264));
#267=MEASURE_REPRESENTATION_ITEM('density measure',
POSITIVE_RATIO_MEASURE(7850.),#266);
#268=PROPERTY_DEFINITION_REPRESENTATION(#273,#270);
#269=PROPERTY_DEFINITION_REPRESENTATION(#274,#271);
#270=REPRESENTATION('material name',(#272),#467);
#271=REPRESENTATION('density',(#267),#467);
#272=DESCRIPTIVE_REPRESENTATION_ITEM('Acier','Acier');
#273=PROPERTY_DEFINITION('material property','material name',#481);
#274=PROPERTY_DEFINITION('material property','density of part',#481);
#275=AXIS2_PLACEMENT_3D('',#396,#312,#313);
#276=AXIS2_PLACEMENT_3D('',#397,#314,#315);
#277=AXIS2_PLACEMENT_3D('',#398,#316,#317);
#278=AXIS2_PLACEMENT_3D('',#400,#318,#319);
#279=AXIS2_PLACEMENT_3D('',#403,#321,#322);
#280=AXIS2_PLACEMENT_3D('',#404,#323,#324);
#281=AXIS2_PLACEMENT_3D('',#406,#325,#326);
#282=AXIS2_PLACEMENT_3D('',#408,#327,#328);
#283=AXIS2_PLACEMENT_3D('',#410,#329,#330);
#284=AXIS2_PLACEMENT_3D('',#412,#331,#332);
#285=AXIS2_PLACEMENT_3D('',#414,#333,#334);
#286=AXIS2_PLACEMENT_3D('',#416,#335,#336);
#287=AXIS2_PLACEMENT_3D('',#418,#337,#338);
#288=AXIS2_PLACEMENT_3D('',#419,#339,#340);
#289=AXIS2_PLACEMENT_3D('',#422,#342,#343);
#290=AXIS2_PLACEMENT_3D('',#423,#344,#345);
#291=AXIS2_PLACEMENT_3D('',#426,#347,#348);
#292=AXIS2_PLACEMENT_3D('',#427,#349,#350);
#293=AXIS2_PLACEMENT_3D('',#430,#352,#353);
#294=AXIS2_PLACEMENT_3D('',#431,#354,#355);
#295=AXIS2_PLACEMENT_3D('',#434,#357,#358);
#296=AXIS2_PLACEMENT_3D('',#435,#359,#360);
#297=AXIS2_PLACEMENT_3D('',#438,#362,#363);
#298=AXIS2_PLACEMENT_3D('',#439,#364,#365);
#299=AXIS2_PLACEMENT_3D('',#442,#367,#368);
#300=AXIS2_PLACEMENT_3D('',#443,#369,#370);
#301=AXIS2_PLACEMENT_3D('',#446,#372,#373);
#302=AXIS2_PLACEMENT_3D('',#447,#374,#375);
#303=AXIS2_PLACEMENT_3D('',#448,#376,#377);
#304=AXIS2_PLACEMENT_3D('',#450,#378,#379);
#305=AXIS2_PLACEMENT_3D('',#453,#381,#382);
#306=AXIS2_PLACEMENT_3D('',#454,#383,#384);
#307=AXIS2_PLACEMENT_3D('',#456,#385,#386);
#308=AXIS2_PLACEMENT_3D('',#459,#388,#389);
#309=AXIS2_PLACEMENT_3D('',#460,#390,#391);
#310=AXIS2_PLACEMENT_3D('',#461,#392,#393);
#311=AXIS2_PLACEMENT_3D('',#462,#394,#395);
#312=DIRECTION('axis',(0.,0.,1.));
#313=DIRECTION('refdir',(1.,0.,0.));
#314=DIRECTION('axis',(0.,0.,1.));
#315=DIRECTION('refdir',(1.,0.,0.));
#316=DIRECTION('center_axis',(0.,0.,-1.));
#317=DIRECTION('ref_axis',(1.,0.,0.));
#318=DIRECTION('center_axis',(0.,0.,-1.));
#319=DIRECTION('ref_axis',(1.,0.,0.));
#320=DIRECTION('',(0.,0.,-1.));
#321=DIRECTION('center_axis',(0.,0.,1.));
#322=DIRECTION('ref_axis',(1.,0.,0.));
#323=DIRECTION('center_axis',(0.,0.,1.));
#324=DIRECTION('ref_axis',(1.,0.,0.));
#325=DIRECTION('center_axis',(0.,0.,1.));
#326=DIRECTION('ref_axis',(1.,0.,0.));
#327=DIRECTION('center_axis',(0.,0.,-1.));
#328=DIRECTION('ref_axis',(-1.,0.,0.));
#329=DIRECTION('center_axis',(0.,0.,-1.));
#330=DIRECTION('ref_axis',(-1.,0.,0.));
#331=DIRECTION('center_axis',(0.,0.,-1.));
#332=DIRECTION('ref_axis',(-1.,0.,0.));
#333=DIRECTION('center_axis',(0.,0.,-1.));
#334=DIRECTION('ref_axis',(-1.,0.,0.));
#335=DIRECTION('center_axis',(0.,0.,-1.));
#336=DIRECTION('ref_axis',(-1.,0.,0.));
#337=DIRECTION('center_axis',(0.,0.,-1.));
#338=DIRECTION('ref_axis',(-1.,0.,0.));
#339=DIRECTION('center_axis',(0.,0.,-1.));
#340=DIRECTION('ref_axis',(-1.,0.,0.));
#341=DIRECTION('',(0.,0.,-1.));
#342=DIRECTION('center_axis',(0.,0.,1.));
#343=DIRECTION('ref_axis',(-1.,0.,0.));
#344=DIRECTION('center_axis',(0.,0.,-1.));
#345=DIRECTION('ref_axis',(-1.,0.,0.));
#346=DIRECTION('',(0.,0.,-1.));
#347=DIRECTION('center_axis',(0.,0.,1.));
#348=DIRECTION('ref_axis',(-1.,0.,0.));
#349=DIRECTION('center_axis',(0.,0.,-1.));
#350=DIRECTION('ref_axis',(-1.,0.,0.));
#351=DIRECTION('',(0.,0.,-1.));
#352=DIRECTION('center_axis',(0.,0.,1.));
#353=DIRECTION('ref_axis',(-1.,0.,0.));
#354=DIRECTION('center_axis',(0.,0.,-1.));
#355=DIRECTION('ref_axis',(-1.,0.,0.));
#356=DIRECTION('',(0.,0.,-1.));
#357=DIRECTION('center_axis',(0.,0.,1.));
#358=DIRECTION('ref_axis',(-1.,0.,0.));
#359=DIRECTION('center_axis',(0.,0.,-1.));
#360=DIRECTION('ref_axis',(-1.,0.,0.));
#361=DIRECTION('',(0.,0.,-1.));
#362=DIRECTION('center_axis',(0.,0.,1.));
#363=DIRECTION('ref_axis',(-1.,0.,0.));
#364=DIRECTION('center_axis',(0.,0.,-1.));
#365=DIRECTION('ref_axis',(-1.,0.,0.));
#366=DIRECTION('',(0.,0.,-1.));
#367=DIRECTION('center_axis',(0.,0.,1.));
#368=DIRECTION('ref_axis',(-1.,0.,0.));
#369=DIRECTION('center_axis',(0.,0.,1.));
#370=DIRECTION('ref_axis',(1.,0.,0.));
#371=DIRECTION('',(0.,0.,-1.));
#372=DIRECTION('center_axis',(0.,0.,1.));
#373=DIRECTION('ref_axis',(1.,0.,0.));
#374=DIRECTION('center_axis',(0.,0.,1.));
#375=DIRECTION('ref_axis',(1.,0.,0.));
#376=DIRECTION('center_axis',(0.,0.,-1.));
#377=DIRECTION('ref_axis',(-1.,0.,0.));
#378=DIRECTION('center_axis',(0.,0.,-1.));
#379=DIRECTION('ref_axis',(-1.,0.,0.));
#380=DIRECTION('',(0.,0.,-1.));
#381=DIRECTION('center_axis',(0.,0.,1.));
#382=DIRECTION('ref_axis',(-1.,0.,0.));
#383=DIRECTION('center_axis',(0.,0.,1.));
#384=DIRECTION('ref_axis',(1.,0.,0.));
#385=DIRECTION('center_axis',(0.,0.,1.));
#386=DIRECTION('ref_axis',(1.,0.,0.));
#387=DIRECTION('',(0.,0.,-1.));
#388=DIRECTION('center_axis',(0.,0.,1.));
#389=DIRECTION('ref_axis',(1.,0.,0.));
#390=DIRECTION('center_axis',(0.,0.,1.));
#391=DIRECTION('ref_axis',(1.,0.,0.));
#392=DIRECTION('center_axis',(0.,0.,1.));
#393=DIRECTION('ref_axis',(1.,0.,0.));
#394=DIRECTION('',(0.,0.,1.));
#395=DIRECTION('',(1.,0.,0.));
#396=CARTESIAN_POINT('',(0.,0.,0.));
#397=CARTESIAN_POINT('',(0.,0.,0.));
#398=CARTESIAN_POINT('Origin',(1.36436014138178E-18,0.,0.0025));
#399=CARTESIAN_POINT('',(-0.0131,1.60428730688303E-18,0.005));
#400=CARTESIAN_POINT('Origin',(1.36436014138178E-18,0.,0.005));
#401=CARTESIAN_POINT('',(-0.0131,1.60428730688303E-18,0.));
#402=CARTESIAN_POINT('',(-0.0131,1.60428730688303E-18,0.0025));
#403=CARTESIAN_POINT('Origin',(1.36436014138178E-18,0.,0.));
#404=CARTESIAN_POINT('Origin',(0.,0.,0.005));
#405=CARTESIAN_POINT('',(-0.035,-4.28626379701574E-18,0.005));
#406=CARTESIAN_POINT('Origin',(0.,0.,0.005));
#407=CARTESIAN_POINT('',(-0.0009219975005669,-0.0285000004246831,0.005));
#408=CARTESIAN_POINT('Origin',(-0.00450000006705523,-0.0285000004246831,
0.005));
#409=CARTESIAN_POINT('',(0.00823720764184688,0.0286574932397696,0.005));
#410=CARTESIAN_POINT('Origin',(0.00483751338080996,0.0286574932397696,0.005));
#411=CARTESIAN_POINT('',(0.0256432879830541,-0.0181958236149514,0.005));
#412=CARTESIAN_POINT('Origin',(0.0220377366538632,-0.0181958236149514,0.005));
#413=CARTESIAN_POINT('',(-0.0187753298965909,0.0181254386376141,0.005));
#414=CARTESIAN_POINT('Origin',(-0.0223546132284327,0.0181254386376141,0.005));
#415=CARTESIAN_POINT('',(-0.0225053659109261,-0.0118505677378622,0.005));
#416=CARTESIAN_POINT('Origin',(-0.0262237524928398,-0.0118505677378622,
0.005));
#417=CARTESIAN_POINT('',(0.0298845867918811,0.0119143824454545,0.005));
#418=CARTESIAN_POINT('Origin',(0.0263845867918811,0.0119143824454545,0.005));
#419=CARTESIAN_POINT('Origin',(-0.00450000006705523,-0.0285000004246831,
0.003));
#420=CARTESIAN_POINT('',(-0.000921997500566901,-0.0285000004246831,0.));
#421=CARTESIAN_POINT('',(-0.0009219975005669,-0.0285000004246831,0.003));
#422=CARTESIAN_POINT('Origin',(-0.00450000006705523,-0.0285000004246831,
0.));
#423=CARTESIAN_POINT('Origin',(0.00483751338080996,0.0286574932397696,0.003));
#424=CARTESIAN_POINT('',(0.00823720764184688,0.0286574932397696,0.));
#425=CARTESIAN_POINT('',(0.00823720764184688,0.0286574932397696,0.003));
#426=CARTESIAN_POINT('Origin',(0.00483751338080996,0.0286574932397696,0.));
#427=CARTESIAN_POINT('Origin',(0.0220377366538632,-0.0181958236149514,0.003));
#428=CARTESIAN_POINT('',(0.0256432879830541,-0.0181958236149514,0.));
#429=CARTESIAN_POINT('',(0.0256432879830541,-0.0181958236149514,0.003));
#430=CARTESIAN_POINT('Origin',(0.0220377366538632,-0.0181958236149514,0.));
#431=CARTESIAN_POINT('Origin',(-0.0223546132284327,0.0181254386376141,0.003));
#432=CARTESIAN_POINT('',(-0.0187753298965909,0.0181254386376141,0.));
#433=CARTESIAN_POINT('',(-0.0187753298965909,0.0181254386376141,0.003));
#434=CARTESIAN_POINT('Origin',(-0.0223546132284327,0.0181254386376141,0.));
#435=CARTESIAN_POINT('Origin',(-0.0262237524928398,-0.0118505677378622,
0.003));
#436=CARTESIAN_POINT('',(-0.0225053659109261,-0.0118505677378622,0.));
#437=CARTESIAN_POINT('',(-0.0225053659109261,-0.0118505677378622,0.003));
#438=CARTESIAN_POINT('Origin',(-0.0262237524928398,-0.0118505677378622,
0.));
#439=CARTESIAN_POINT('Origin',(0.0263845867918811,0.0119143824454545,0.003));
#440=CARTESIAN_POINT('',(0.0298845867918811,0.0119143824454545,0.));
#441=CARTESIAN_POINT('',(0.0298845867918811,0.0119143824454545,0.003));
#442=CARTESIAN_POINT('Origin',(0.0263845867918811,0.0119143824454545,0.));
#443=CARTESIAN_POINT('Origin',(0.,0.,0.));
#444=CARTESIAN_POINT('',(-0.035,-4.28626379701574E-18,0.));
#445=CARTESIAN_POINT('',(-0.035,-4.28626379701574E-18,0.));
#446=CARTESIAN_POINT('Origin',(0.,0.,0.));
#447=CARTESIAN_POINT('Origin',(0.,0.,0.));
#448=CARTESIAN_POINT('Origin',(-1.6504175410148E-6,6.75575578625187E-6,
0.0275));
#449=CARTESIAN_POINT('',(0.00832334958245898,6.75575578625289E-6,0.0275));
#450=CARTESIAN_POINT('Origin',(-1.6504175410148E-6,6.75575578625187E-6,
0.0275));
#451=CARTESIAN_POINT('',(0.00832334958245898,6.75575578625289E-6,-0.0225));
#452=CARTESIAN_POINT('',(0.00832334958245898,6.75575578625085E-6,0.0275));
#453=CARTESIAN_POINT('Origin',(-1.6504175410148E-6,6.75575578625187E-6,
-0.0225));
#454=CARTESIAN_POINT('Origin',(-1.6504175410148E-6,6.75575578625187E-6,
-0.0225));
#455=CARTESIAN_POINT('',(-0.013101650417541,6.75575578625021E-6,0.0275));
#456=CARTESIAN_POINT('Origin',(-1.6504175410148E-6,6.75575578625187E-6,
0.0275));
#457=CARTESIAN_POINT('',(-0.013101650417541,6.75575578625021E-6,-0.0225));
#458=CARTESIAN_POINT('',(-0.013101650417541,6.75575578625027E-6,-0.0225));
#459=CARTESIAN_POINT('Origin',(-1.6504175410148E-6,6.75575578625187E-6,
-0.0225));
#460=CARTESIAN_POINT('Origin',(-1.6504175410148E-6,6.75575578625187E-6,
0.0275));
#461=CARTESIAN_POINT('Origin',(-1.6504175410148E-6,6.75575578625187E-6,
-0.0225));
#462=CARTESIAN_POINT('',(0.,0.,0.));
#463=UNCERTAINTY_MEASURE_WITH_UNIT(LENGTH_MEASURE(1.E-5),#469,
'DISTANCE_ACCURACY_VALUE',
'Maximum model space distance between geometric entities at asserted c
onnectivities');
#464=UNCERTAINTY_MEASURE_WITH_UNIT(LENGTH_MEASURE(1.E-5),#469,
'DISTANCE_ACCURACY_VALUE',
'Maximum model space distance between geometric entities at asserted c
onnectivities');
#465=UNCERTAINTY_MEASURE_WITH_UNIT(LENGTH_MEASURE(1.E-5),#469,
'DISTANCE_ACCURACY_VALUE',
'Maximum model space distance between geometric entities at asserted c
onnectivities');
#466=(
GEOMETRIC_REPRESENTATION_CONTEXT(3)
GLOBAL_UNCERTAINTY_ASSIGNED_CONTEXT((#463))
GLOBAL_UNIT_ASSIGNED_CONTEXT((#469,#470,#471))
REPRESENTATION_CONTEXT('','3D')
);
#467=(
GEOMETRIC_REPRESENTATION_CONTEXT(3)
GLOBAL_UNCERTAINTY_ASSIGNED_CONTEXT((#464))
GLOBAL_UNIT_ASSIGNED_CONTEXT((#469,#470,#471))
REPRESENTATION_CONTEXT('','3D')
);
#468=(
GEOMETRIC_REPRESENTATION_CONTEXT(3)
GLOBAL_UNCERTAINTY_ASSIGNED_CONTEXT((#465))
GLOBAL_UNIT_ASSIGNED_CONTEXT((#469,#470,#471))
REPRESENTATION_CONTEXT('','3D')
);
#469=(
LENGTH_UNIT()
NAMED_UNIT(*)
SI_UNIT($,.METRE.)
);
#470=(
NAMED_UNIT(*)
PLANE_ANGLE_UNIT()
SI_UNIT($,.RADIAN.)
);
#471=(
NAMED_UNIT(*)
SI_UNIT($,.STERADIAN.)
SOLID_ANGLE_UNIT()
);
#472=SHAPE_DEFINITION_REPRESENTATION(#474,#477);
#473=SHAPE_DEFINITION_REPRESENTATION(#475,#478);
#474=PRODUCT_DEFINITION_SHAPE('',$,#480);
#475=PRODUCT_DEFINITION_SHAPE('',$,#481);
#476=PRODUCT_DEFINITION_SHAPE($,$,#14);
#477=SHAPE_REPRESENTATION('',(#275,#311),#466);
#478=SHAPE_REPRESENTATION('',(#276),#467);
#479=PRODUCT_DEFINITION_CONTEXT('part definition',#487,'design');
#480=PRODUCT_DEFINITION('plaque frein kart',
'plaque frein kart avec support v3',#482,#479);
#481=PRODUCT_DEFINITION('Composant1','Composant1',#483,#479);
#482=PRODUCT_DEFINITION_FORMATION('',$,#489);
#483=PRODUCT_DEFINITION_FORMATION('',$,#490);
#484=PRODUCT_RELATED_PRODUCT_CATEGORY(
'plaque frein kart avec support v3','plaque frein kart avec support v3',
(#489));
#485=PRODUCT_RELATED_PRODUCT_CATEGORY('Composant1','Composant1',(#490));
#486=APPLICATION_PROTOCOL_DEFINITION('international standard',
'ap242_managed_model_based_3d_engineering',2011,#487);
#487=APPLICATION_CONTEXT('Managed model based 3d engineering');
#488=PRODUCT_CONTEXT('part definition',#487,'mechanical');
#489=PRODUCT('plaque frein kart','plaque frein kart avec support v3',$,
(#488));
#490=PRODUCT('Composant1','Composant1',$,(#488));
#491=PRESENTATION_STYLE_ASSIGNMENT((#493));
#492=PRESENTATION_STYLE_ASSIGNMENT((#494));
#493=SURFACE_STYLE_USAGE(.BOTH.,#495);
#494=SURFACE_STYLE_USAGE(.BOTH.,#496);
#495=SURFACE_SIDE_STYLE('',(#497));
#496=SURFACE_SIDE_STYLE('',(#498));
#497=SURFACE_STYLE_FILL_AREA(#499);
#498=SURFACE_STYLE_FILL_AREA(#500);
#499=FILL_AREA_STYLE('Acier - Satin\X\E9',(#501));
#500=FILL_AREA_STYLE('Opaque(160,160,160)',(#502));
#501=FILL_AREA_STYLE_COLOUR('Acier - Satin\X\E9',#503);
#502=FILL_AREA_STYLE_COLOUR('Opaque(160,160,160)',#504);
#503=COLOUR_RGB('Acier - Satin\X\E9',0.627450980392157,0.627450980392157,
0.627450980392157);
#504=COLOUR_RGB('Opaque(160,160,160)',0.627450980392157,0.627450980392157,
0.627450980392157);
ENDSEC;
END-ISO-10303-21;
