ISO-10303-21;
HEADER;
FILE_DESCRIPTION(('FreeCAD Model'),'2;1');
FILE_NAME('Open CASCADE Shape Model','2025-01-08T16:28:08',('Author'),(
    ''),'Open CASCADE STEP processor 7.8','FreeCAD','Unknown');
FILE_SCHEMA(('AUTOMOTIVE_DESIGN { 1 0 10303 214 1 1 1 1 }'));
ENDSEC;
DATA;
#1 = APPLICATION_PROTOCOL_DEFINITION('international standard',
  'automotive_design',2000,#2);
#2 = APPLICATION_CONTEXT(
  'core data for automotive mechanical design processes');
#3 = SHAPE_DEFINITION_REPRESENTATION(#4,#10);
#4 = PRODUCT_DEFINITION_SHAPE('','',#5);
#5 = PRODUCT_DEFINITION('design','',#6,#9);
#6 = PRODUCT_DEFINITION_FORMATION('','',#7);
#7 = PRODUCT('Body','Body','',(#8));
#8 = PRODUCT_CONTEXT('',#2,'mechanical');
#9 = PRODUCT_DEFINITION_CONTEXT('part definition',#2,'design');
#10 = ADVANCED_BREP_SHAPE_REPRESENTATION('',(#11,#15),#438);
#11 = AXIS2_PLACEMENT_3D('',#12,#13,#14);
#12 = CARTESIAN_POINT('',(0.,0.,0.));
#13 = DIRECTION('',(0.,0.,1.));
#14 = DIRECTION('',(1.,0.,-0.));
#15 = MANIFOLD_SOLID_BREP('',#16);
#16 = CLOSED_SHELL('',(#17,#57,#88,#119,#185,#251,#268,#285,#297,#322,
    #339,#356,#381,#401,#421));
#17 = ADVANCED_FACE('',(#18),#52,.F.);
#18 = FACE_BOUND('',#19,.F.);
#19 = EDGE_LOOP('',(#20,#30,#38,#46));
#20 = ORIENTED_EDGE('',*,*,#21,.T.);
#21 = EDGE_CURVE('',#22,#24,#26,.T.);
#22 = VERTEX_POINT('',#23);
#23 = CARTESIAN_POINT('',(-4.764560328305E-22,4.884981308351E-15,22.));
#24 = VERTEX_POINT('',#25);
#25 = CARTESIAN_POINT('',(-4.764560328305E-22,-10.,22.));
#26 = LINE('',#27,#28);
#27 = CARTESIAN_POINT('',(-4.764560328305E-22,4.884981308351E-15,22.));
#28 = VECTOR('',#29,1.);
#29 = DIRECTION('',(0.,-1.,2.22044604925E-16));
#30 = ORIENTED_EDGE('',*,*,#31,.T.);
#31 = EDGE_CURVE('',#24,#32,#34,.T.);
#32 = VERTEX_POINT('',#33);
#33 = CARTESIAN_POINT('',(-9.47361720863E-22,-10.,2.22044604925E-15));
#34 = LINE('',#35,#36);
#35 = CARTESIAN_POINT('',(-9.47361720863E-22,-10.,22.));
#36 = VECTOR('',#37,1.);
#37 = DIRECTION('',(0.,-2.22044604925E-16,-1.));
#38 = ORIENTED_EDGE('',*,*,#39,.F.);
#39 = EDGE_CURVE('',#40,#32,#42,.T.);
#40 = VERTEX_POINT('',#41);
#41 = CARTESIAN_POINT('',(-9.47361720863E-22,0.,-0.));
#42 = LINE('',#43,#44);
#43 = CARTESIAN_POINT('',(-9.47361720863E-22,0.,0.));
#44 = VECTOR('',#45,1.);
#45 = DIRECTION('',(0.,-1.,2.22044604925E-16));
#46 = ORIENTED_EDGE('',*,*,#47,.F.);
#47 = EDGE_CURVE('',#22,#40,#48,.T.);
#48 = LINE('',#49,#50);
#49 = CARTESIAN_POINT('',(-9.47361720863E-22,4.884981308351E-15,22.));
#50 = VECTOR('',#51,1.);
#51 = DIRECTION('',(0.,-2.22044604925E-16,-1.));
#52 = PLANE('',#53);
#53 = AXIS2_PLACEMENT_3D('',#54,#55,#56);
#54 = CARTESIAN_POINT('',(-9.47361720863E-22,4.884981308351E-15,22.));
#55 = DIRECTION('',(1.,0.,0.));
#56 = DIRECTION('',(0.,-2.22044604925E-16,-1.));
#57 = ADVANCED_FACE('',(#58),#83,.F.);
#58 = FACE_BOUND('',#59,.F.);
#59 = EDGE_LOOP('',(#60,#70,#76,#77));
#60 = ORIENTED_EDGE('',*,*,#61,.T.);
#61 = EDGE_CURVE('',#62,#64,#66,.T.);
#62 = VERTEX_POINT('',#63);
#63 = CARTESIAN_POINT('',(140.,4.884981308351E-15,22.));
#64 = VERTEX_POINT('',#65);
#65 = CARTESIAN_POINT('',(140.,-10.,22.));
#66 = LINE('',#67,#68);
#67 = CARTESIAN_POINT('',(140.,4.884981308351E-15,22.));
#68 = VECTOR('',#69,1.);
#69 = DIRECTION('',(0.,-1.,2.22044604925E-16));
#70 = ORIENTED_EDGE('',*,*,#71,.T.);
#71 = EDGE_CURVE('',#64,#24,#72,.T.);
#72 = LINE('',#73,#74);
#73 = CARTESIAN_POINT('',(140.,-10.,22.));
#74 = VECTOR('',#75,1.);
#75 = DIRECTION('',(-1.,0.,0.));
#76 = ORIENTED_EDGE('',*,*,#21,.F.);
#77 = ORIENTED_EDGE('',*,*,#78,.F.);
#78 = EDGE_CURVE('',#62,#22,#79,.T.);
#79 = LINE('',#80,#81);
#80 = CARTESIAN_POINT('',(140.,4.884981308351E-15,22.));
#81 = VECTOR('',#82,1.);
#82 = DIRECTION('',(-1.,0.,0.));
#83 = PLANE('',#84);
#84 = AXIS2_PLACEMENT_3D('',#85,#86,#87);
#85 = CARTESIAN_POINT('',(140.,4.884981308351E-15,22.));
#86 = DIRECTION('',(0.,-2.22044604925E-16,-1.));
#87 = DIRECTION('',(-1.,0.,0.));
#88 = ADVANCED_FACE('',(#89),#114,.F.);
#89 = FACE_BOUND('',#90,.F.);
#90 = EDGE_LOOP('',(#91,#92,#100,#108));
#91 = ORIENTED_EDGE('',*,*,#39,.T.);
#92 = ORIENTED_EDGE('',*,*,#93,.T.);
#93 = EDGE_CURVE('',#32,#94,#96,.T.);
#94 = VERTEX_POINT('',#95);
#95 = CARTESIAN_POINT('',(42.5,-10.,-46.));
#96 = LINE('',#97,#98);
#97 = CARTESIAN_POINT('',(-9.47361720863E-22,-10.,3.552713678801E-15));
#98 = VECTOR('',#99,1.);
#99 = DIRECTION('',(0.678611623639,-1.630911598577E-16,-0.734497286763)
  );
#100 = ORIENTED_EDGE('',*,*,#101,.F.);
#101 = EDGE_CURVE('',#102,#94,#104,.T.);
#102 = VERTEX_POINT('',#103);
#103 = CARTESIAN_POINT('',(42.5,-1.021405182655E-14,-46.));
#104 = LINE('',#105,#106);
#105 = CARTESIAN_POINT('',(42.5,-1.021405182655E-14,-46.));
#106 = VECTOR('',#107,1.);
#107 = DIRECTION('',(0.,-1.,2.22044604925E-16));
#108 = ORIENTED_EDGE('',*,*,#109,.F.);
#109 = EDGE_CURVE('',#40,#102,#110,.T.);
#110 = LINE('',#111,#112);
#111 = CARTESIAN_POINT('',(-9.47361720863E-22,0.,0.));
#112 = VECTOR('',#113,1.);
#113 = DIRECTION('',(0.678611623639,-1.630911598577E-16,-0.734497286763)
  );
#114 = PLANE('',#115);
#115 = AXIS2_PLACEMENT_3D('',#116,#117,#118);
#116 = CARTESIAN_POINT('',(-9.47361720863E-22,0.,0.));
#117 = DIRECTION('',(0.734497286763,1.506820498685E-16,0.678611623639));
#118 = DIRECTION('',(0.678611623639,-1.630911598577E-16,-0.734497286763)
  );
#119 = ADVANCED_FACE('',(#120,#147,#158,#169),#180,.T.);
#120 = FACE_BOUND('',#121,.F.);
#121 = EDGE_LOOP('',(#122,#123,#124,#132,#140,#146));
#122 = ORIENTED_EDGE('',*,*,#47,.T.);
#123 = ORIENTED_EDGE('',*,*,#109,.T.);
#124 = ORIENTED_EDGE('',*,*,#125,.T.);
#125 = EDGE_CURVE('',#102,#126,#128,.T.);
#126 = VERTEX_POINT('',#127);
#127 = CARTESIAN_POINT('',(97.5,-1.021405182655E-14,-46.));
#128 = LINE('',#129,#130);
#129 = CARTESIAN_POINT('',(42.5,-1.021405182655E-14,-46.));
#130 = VECTOR('',#131,1.);
#131 = DIRECTION('',(1.,0.,0.));
#132 = ORIENTED_EDGE('',*,*,#133,.T.);
#133 = EDGE_CURVE('',#126,#134,#136,.T.);
#134 = VERTEX_POINT('',#135);
#135 = CARTESIAN_POINT('',(140.,0.,0.));
#136 = LINE('',#137,#138);
#137 = CARTESIAN_POINT('',(97.5,-1.021405182655E-14,-46.));
#138 = VECTOR('',#139,1.);
#139 = DIRECTION('',(0.678611623639,1.630911598577E-16,0.734497286763));
#140 = ORIENTED_EDGE('',*,*,#141,.T.);
#141 = EDGE_CURVE('',#134,#62,#142,.T.);
#142 = LINE('',#143,#144);
#143 = CARTESIAN_POINT('',(140.,0.,0.));
#144 = VECTOR('',#145,1.);
#145 = DIRECTION('',(0.,2.22044604925E-16,1.));
#146 = ORIENTED_EDGE('',*,*,#78,.T.);
#147 = FACE_BOUND('',#148,.T.);
#148 = EDGE_LOOP('',(#149));
#149 = ORIENTED_EDGE('',*,*,#150,.T.);
#150 = EDGE_CURVE('',#151,#151,#153,.T.);
#151 = VERTEX_POINT('',#152);
#152 = CARTESIAN_POINT('',(77.5,-1.7763568394E-15,-8.));
#153 = CIRCLE('',#154,7.5);
#154 = AXIS2_PLACEMENT_3D('',#155,#156,#157);
#155 = CARTESIAN_POINT('',(70.,-1.7763568394E-15,-8.));
#156 = DIRECTION('',(0.,-1.,2.22044604925E-16));
#157 = DIRECTION('',(1.,0.,0.));
#158 = FACE_BOUND('',#159,.T.);
#159 = EDGE_LOOP('',(#160));
#160 = ORIENTED_EDGE('',*,*,#161,.T.);
#161 = EDGE_CURVE('',#162,#162,#164,.T.);
#162 = VERTEX_POINT('',#163);
#163 = CARTESIAN_POINT('',(129.,2.886579864025E-15,13.));
#164 = CIRCLE('',#165,4.);
#165 = AXIS2_PLACEMENT_3D('',#166,#167,#168);
#166 = CARTESIAN_POINT('',(125.,2.886579864025E-15,13.));
#167 = DIRECTION('',(0.,-1.,2.22044604925E-16));
#168 = DIRECTION('',(1.,0.,0.));
#169 = FACE_BOUND('',#170,.T.);
#170 = EDGE_LOOP('',(#171));
#171 = ORIENTED_EDGE('',*,*,#172,.T.);
#172 = EDGE_CURVE('',#173,#173,#175,.T.);
#173 = VERTEX_POINT('',#174);
#174 = CARTESIAN_POINT('',(19.,2.886579864025E-15,13.));
#175 = CIRCLE('',#176,4.);
#176 = AXIS2_PLACEMENT_3D('',#177,#178,#179);
#177 = CARTESIAN_POINT('',(15.,2.886579864025E-15,13.));
#178 = DIRECTION('',(0.,-1.,2.22044604925E-16));
#179 = DIRECTION('',(1.,0.,0.));
#180 = PLANE('',#181);
#181 = AXIS2_PLACEMENT_3D('',#182,#183,#184);
#182 = CARTESIAN_POINT('',(70.,-8.078397373015E-16,-3.638186739886));
#183 = DIRECTION('',(0.,1.,-9.860761315263E-32));
#184 = DIRECTION('',(0.,9.860761315263E-32,1.));
#185 = ADVANCED_FACE('',(#186,#213,#224,#235),#246,.F.);
#186 = FACE_BOUND('',#187,.F.);
#187 = EDGE_LOOP('',(#188,#189,#190,#198,#206,#212));
#188 = ORIENTED_EDGE('',*,*,#31,.F.);
#189 = ORIENTED_EDGE('',*,*,#71,.F.);
#190 = ORIENTED_EDGE('',*,*,#191,.F.);
#191 = EDGE_CURVE('',#192,#64,#194,.T.);
#192 = VERTEX_POINT('',#193);
#193 = CARTESIAN_POINT('',(140.,-10.,2.22044604925E-15));
#194 = LINE('',#195,#196);
#195 = CARTESIAN_POINT('',(140.,-10.,3.552713678801E-15));
#196 = VECTOR('',#197,1.);
#197 = DIRECTION('',(0.,2.22044604925E-16,1.));
#198 = ORIENTED_EDGE('',*,*,#199,.F.);
#199 = EDGE_CURVE('',#200,#192,#202,.T.);
#200 = VERTEX_POINT('',#201);
#201 = CARTESIAN_POINT('',(97.5,-10.,-46.));
#202 = LINE('',#203,#204);
#203 = CARTESIAN_POINT('',(97.5,-10.,-46.));
#204 = VECTOR('',#205,1.);
#205 = DIRECTION('',(0.678611623639,1.630911598577E-16,0.734497286763));
#206 = ORIENTED_EDGE('',*,*,#207,.F.);
#207 = EDGE_CURVE('',#94,#200,#208,.T.);
#208 = LINE('',#209,#210);
#209 = CARTESIAN_POINT('',(42.5,-10.,-46.));
#210 = VECTOR('',#211,1.);
#211 = DIRECTION('',(1.,0.,0.));
#212 = ORIENTED_EDGE('',*,*,#93,.F.);
#213 = FACE_BOUND('',#214,.F.);
#214 = EDGE_LOOP('',(#215));
#215 = ORIENTED_EDGE('',*,*,#216,.T.);
#216 = EDGE_CURVE('',#217,#217,#219,.T.);
#217 = VERTEX_POINT('',#218);
#218 = CARTESIAN_POINT('',(95.,-10.,-8.));
#219 = CIRCLE('',#220,25.);
#220 = AXIS2_PLACEMENT_3D('',#221,#222,#223);
#221 = CARTESIAN_POINT('',(70.,-10.,-8.));
#222 = DIRECTION('',(0.,-1.,2.22044604925E-16));
#223 = DIRECTION('',(1.,0.,0.));
#224 = FACE_BOUND('',#225,.F.);
#225 = EDGE_LOOP('',(#226));
#226 = ORIENTED_EDGE('',*,*,#227,.T.);
#227 = EDGE_CURVE('',#228,#228,#230,.T.);
#228 = VERTEX_POINT('',#229);
#229 = CARTESIAN_POINT('',(19.,-10.,13.));
#230 = CIRCLE('',#231,4.);
#231 = AXIS2_PLACEMENT_3D('',#232,#233,#234);
#232 = CARTESIAN_POINT('',(15.,-10.,13.));
#233 = DIRECTION('',(0.,-1.,2.22044604925E-16));
#234 = DIRECTION('',(1.,0.,0.));
#235 = FACE_BOUND('',#236,.F.);
#236 = EDGE_LOOP('',(#237));
#237 = ORIENTED_EDGE('',*,*,#238,.T.);
#238 = EDGE_CURVE('',#239,#239,#241,.T.);
#239 = VERTEX_POINT('',#240);
#240 = CARTESIAN_POINT('',(129.,-10.,13.));
#241 = CIRCLE('',#242,4.);
#242 = AXIS2_PLACEMENT_3D('',#243,#244,#245);
#243 = CARTESIAN_POINT('',(125.,-10.,13.));
#244 = DIRECTION('',(0.,-1.,2.22044604925E-16));
#245 = DIRECTION('',(1.,0.,0.));
#246 = PLANE('',#247);
#247 = AXIS2_PLACEMENT_3D('',#248,#249,#250);
#248 = CARTESIAN_POINT('',(70.,-10.,-3.638186739886));
#249 = DIRECTION('',(0.,1.,-9.860761315263E-32));
#250 = DIRECTION('',(0.,9.860761315263E-32,1.));
#251 = ADVANCED_FACE('',(#252),#263,.F.);
#252 = FACE_BOUND('',#253,.F.);
#253 = EDGE_LOOP('',(#254,#260,#261,#262));
#254 = ORIENTED_EDGE('',*,*,#255,.T.);
#255 = EDGE_CURVE('',#134,#192,#256,.T.);
#256 = LINE('',#257,#258);
#257 = CARTESIAN_POINT('',(140.,0.,0.));
#258 = VECTOR('',#259,1.);
#259 = DIRECTION('',(0.,-1.,2.22044604925E-16));
#260 = ORIENTED_EDGE('',*,*,#191,.T.);
#261 = ORIENTED_EDGE('',*,*,#61,.F.);
#262 = ORIENTED_EDGE('',*,*,#141,.F.);
#263 = PLANE('',#264);
#264 = AXIS2_PLACEMENT_3D('',#265,#266,#267);
#265 = CARTESIAN_POINT('',(140.,0.,0.));
#266 = DIRECTION('',(-1.,0.,0.));
#267 = DIRECTION('',(0.,2.22044604925E-16,1.));
#268 = ADVANCED_FACE('',(#269),#280,.F.);
#269 = FACE_BOUND('',#270,.F.);
#270 = EDGE_LOOP('',(#271,#272,#273,#279));
#271 = ORIENTED_EDGE('',*,*,#101,.T.);
#272 = ORIENTED_EDGE('',*,*,#207,.T.);
#273 = ORIENTED_EDGE('',*,*,#274,.F.);
#274 = EDGE_CURVE('',#126,#200,#275,.T.);
#275 = LINE('',#276,#277);
#276 = CARTESIAN_POINT('',(97.5,-1.021405182655E-14,-46.));
#277 = VECTOR('',#278,1.);
#278 = DIRECTION('',(0.,-1.,2.22044604925E-16));
#279 = ORIENTED_EDGE('',*,*,#125,.F.);
#280 = PLANE('',#281);
#281 = AXIS2_PLACEMENT_3D('',#282,#283,#284);
#282 = CARTESIAN_POINT('',(42.5,-1.021405182655E-14,-46.));
#283 = DIRECTION('',(0.,2.22044604925E-16,1.));
#284 = DIRECTION('',(1.,0.,0.));
#285 = ADVANCED_FACE('',(#286),#292,.F.);
#286 = FACE_BOUND('',#287,.F.);
#287 = EDGE_LOOP('',(#288,#289,#290,#291));
#288 = ORIENTED_EDGE('',*,*,#274,.T.);
#289 = ORIENTED_EDGE('',*,*,#199,.T.);
#290 = ORIENTED_EDGE('',*,*,#255,.F.);
#291 = ORIENTED_EDGE('',*,*,#133,.F.);
#292 = PLANE('',#293);
#293 = AXIS2_PLACEMENT_3D('',#294,#295,#296);
#294 = CARTESIAN_POINT('',(97.5,-1.021405182655E-14,-46.));
#295 = DIRECTION('',(-0.734497286763,1.506820498685E-16,0.678611623639)
  );
#296 = DIRECTION('',(0.678611623639,1.630911598577E-16,0.734497286763));
#297 = ADVANCED_FACE('',(#298),#317,.F.);
#298 = FACE_BOUND('',#299,.T.);
#299 = EDGE_LOOP('',(#300,#308,#315,#316));
#300 = ORIENTED_EDGE('',*,*,#301,.T.);
#301 = EDGE_CURVE('',#151,#302,#304,.T.);
#302 = VERTEX_POINT('',#303);
#303 = CARTESIAN_POINT('',(77.5,-10.,-8.));
#304 = LINE('',#305,#306);
#305 = CARTESIAN_POINT('',(77.5,-1.7763568394E-15,-8.));
#306 = VECTOR('',#307,1.);
#307 = DIRECTION('',(0.,-1.,2.22044604925E-16));
#308 = ORIENTED_EDGE('',*,*,#309,.T.);
#309 = EDGE_CURVE('',#302,#302,#310,.T.);
#310 = CIRCLE('',#311,7.5);
#311 = AXIS2_PLACEMENT_3D('',#312,#313,#314);
#312 = CARTESIAN_POINT('',(70.,-10.,-8.));
#313 = DIRECTION('',(0.,-1.,2.22044604925E-16));
#314 = DIRECTION('',(1.,0.,0.));
#315 = ORIENTED_EDGE('',*,*,#301,.F.);
#316 = ORIENTED_EDGE('',*,*,#150,.F.);
#317 = CYLINDRICAL_SURFACE('',#318,7.5);
#318 = AXIS2_PLACEMENT_3D('',#319,#320,#321);
#319 = CARTESIAN_POINT('',(70.,-1.7763568394E-15,-8.));
#320 = DIRECTION('',(0.,1.,-2.22044604925E-16));
#321 = DIRECTION('',(1.,0.,0.));
#322 = ADVANCED_FACE('',(#323),#334,.F.);
#323 = FACE_BOUND('',#324,.T.);
#324 = EDGE_LOOP('',(#325,#331,#332,#333));
#325 = ORIENTED_EDGE('',*,*,#326,.T.);
#326 = EDGE_CURVE('',#162,#239,#327,.T.);
#327 = LINE('',#328,#329);
#328 = CARTESIAN_POINT('',(129.,2.886579864025E-15,13.));
#329 = VECTOR('',#330,1.);
#330 = DIRECTION('',(0.,-1.,2.22044604925E-16));
#331 = ORIENTED_EDGE('',*,*,#238,.T.);
#332 = ORIENTED_EDGE('',*,*,#326,.F.);
#333 = ORIENTED_EDGE('',*,*,#161,.F.);
#334 = CYLINDRICAL_SURFACE('',#335,4.);
#335 = AXIS2_PLACEMENT_3D('',#336,#337,#338);
#336 = CARTESIAN_POINT('',(125.,2.886579864025E-15,13.));
#337 = DIRECTION('',(0.,1.,-2.22044604925E-16));
#338 = DIRECTION('',(1.,0.,0.));
#339 = ADVANCED_FACE('',(#340),#351,.F.);
#340 = FACE_BOUND('',#341,.T.);
#341 = EDGE_LOOP('',(#342,#348,#349,#350));
#342 = ORIENTED_EDGE('',*,*,#343,.T.);
#343 = EDGE_CURVE('',#173,#228,#344,.T.);
#344 = LINE('',#345,#346);
#345 = CARTESIAN_POINT('',(19.,2.886579864025E-15,13.));
#346 = VECTOR('',#347,1.);
#347 = DIRECTION('',(0.,-1.,2.22044604925E-16));
#348 = ORIENTED_EDGE('',*,*,#227,.T.);
#349 = ORIENTED_EDGE('',*,*,#343,.F.);
#350 = ORIENTED_EDGE('',*,*,#172,.F.);
#351 = CYLINDRICAL_SURFACE('',#352,4.);
#352 = AXIS2_PLACEMENT_3D('',#353,#354,#355);
#353 = CARTESIAN_POINT('',(15.,2.886579864025E-15,13.));
#354 = DIRECTION('',(0.,1.,-2.22044604925E-16));
#355 = DIRECTION('',(1.,0.,0.));
#356 = ADVANCED_FACE('',(#357),#376,.T.);
#357 = FACE_BOUND('',#358,.F.);
#358 = EDGE_LOOP('',(#359,#367,#374,#375));
#359 = ORIENTED_EDGE('',*,*,#360,.T.);
#360 = EDGE_CURVE('',#217,#361,#363,.T.);
#361 = VERTEX_POINT('',#362);
#362 = CARTESIAN_POINT('',(95.,-32.,-8.));
#363 = LINE('',#364,#365);
#364 = CARTESIAN_POINT('',(95.,-10.,-8.));
#365 = VECTOR('',#366,1.);
#366 = DIRECTION('',(0.,-1.,2.22044604925E-16));
#367 = ORIENTED_EDGE('',*,*,#368,.T.);
#368 = EDGE_CURVE('',#361,#361,#369,.T.);
#369 = CIRCLE('',#370,25.);
#370 = AXIS2_PLACEMENT_3D('',#371,#372,#373);
#371 = CARTESIAN_POINT('',(70.,-32.,-8.));
#372 = DIRECTION('',(0.,-1.,2.22044604925E-16));
#373 = DIRECTION('',(1.,0.,0.));
#374 = ORIENTED_EDGE('',*,*,#360,.F.);
#375 = ORIENTED_EDGE('',*,*,#216,.F.);
#376 = CYLINDRICAL_SURFACE('',#377,25.);
#377 = AXIS2_PLACEMENT_3D('',#378,#379,#380);
#378 = CARTESIAN_POINT('',(70.,-10.,-8.));
#379 = DIRECTION('',(0.,1.,-2.22044604925E-16));
#380 = DIRECTION('',(1.,0.,0.));
#381 = ADVANCED_FACE('',(#382,#393),#396,.F.);
#382 = FACE_BOUND('',#383,.F.);
#383 = EDGE_LOOP('',(#384));
#384 = ORIENTED_EDGE('',*,*,#385,.F.);
#385 = EDGE_CURVE('',#386,#386,#388,.T.);
#386 = VERTEX_POINT('',#387);
#387 = CARTESIAN_POINT('',(87.5,-10.,-8.));
#388 = CIRCLE('',#389,17.5);
#389 = AXIS2_PLACEMENT_3D('',#390,#391,#392);
#390 = CARTESIAN_POINT('',(70.,-10.,-8.));
#391 = DIRECTION('',(0.,-1.,2.22044604925E-16));
#392 = DIRECTION('',(1.,0.,0.));
#393 = FACE_BOUND('',#394,.F.);
#394 = EDGE_LOOP('',(#395));
#395 = ORIENTED_EDGE('',*,*,#309,.T.);
#396 = PLANE('',#397);
#397 = AXIS2_PLACEMENT_3D('',#398,#399,#400);
#398 = CARTESIAN_POINT('',(70.,-10.,-3.638186739886));
#399 = DIRECTION('',(0.,1.,-9.860761315263E-32));
#400 = DIRECTION('',(0.,9.860761315263E-32,1.));
#401 = ADVANCED_FACE('',(#402,#405),#416,.F.);
#402 = FACE_BOUND('',#403,.T.);
#403 = EDGE_LOOP('',(#404));
#404 = ORIENTED_EDGE('',*,*,#368,.T.);
#405 = FACE_BOUND('',#406,.F.);
#406 = EDGE_LOOP('',(#407));
#407 = ORIENTED_EDGE('',*,*,#408,.T.);
#408 = EDGE_CURVE('',#409,#409,#411,.T.);
#409 = VERTEX_POINT('',#410);
#410 = CARTESIAN_POINT('',(87.5,-32.,-8.));
#411 = CIRCLE('',#412,17.5);
#412 = AXIS2_PLACEMENT_3D('',#413,#414,#415);
#413 = CARTESIAN_POINT('',(70.,-32.,-8.));
#414 = DIRECTION('',(0.,-1.,2.22044604925E-16));
#415 = DIRECTION('',(1.,0.,0.));
#416 = PLANE('',#417);
#417 = AXIS2_PLACEMENT_3D('',#418,#419,#420);
#418 = CARTESIAN_POINT('',(70.,-32.,-8.));
#419 = DIRECTION('',(0.,1.,-2.431457212587E-16));
#420 = DIRECTION('',(0.,2.431457212587E-16,1.));
#421 = ADVANCED_FACE('',(#422),#433,.F.);
#422 = FACE_BOUND('',#423,.T.);
#423 = EDGE_LOOP('',(#424,#430,#431,#432));
#424 = ORIENTED_EDGE('',*,*,#425,.T.);
#425 = EDGE_CURVE('',#386,#409,#426,.T.);
#426 = LINE('',#427,#428);
#427 = CARTESIAN_POINT('',(87.5,-10.,-8.));
#428 = VECTOR('',#429,1.);
#429 = DIRECTION('',(0.,-1.,2.22044604925E-16));
#430 = ORIENTED_EDGE('',*,*,#408,.T.);
#431 = ORIENTED_EDGE('',*,*,#425,.F.);
#432 = ORIENTED_EDGE('',*,*,#385,.F.);
#433 = CYLINDRICAL_SURFACE('',#434,17.5);
#434 = AXIS2_PLACEMENT_3D('',#435,#436,#437);
#435 = CARTESIAN_POINT('',(70.,-10.,-8.));
#436 = DIRECTION('',(0.,1.,-2.22044604925E-16));
#437 = DIRECTION('',(1.,0.,0.));
#438 = ( GEOMETRIC_REPRESENTATION_CONTEXT(3) 
GLOBAL_UNCERTAINTY_ASSIGNED_CONTEXT((#442)) GLOBAL_UNIT_ASSIGNED_CONTEXT
((#439,#440,#441)) REPRESENTATION_CONTEXT('Context #1',
  '3D Context with UNIT and UNCERTAINTY') );
#439 = ( LENGTH_UNIT() NAMED_UNIT(*) SI_UNIT(.MILLI.,.METRE.) );
#440 = ( NAMED_UNIT(*) PLANE_ANGLE_UNIT() SI_UNIT($,.RADIAN.) );
#441 = ( NAMED_UNIT(*) SI_UNIT($,.STERADIAN.) SOLID_ANGLE_UNIT() );
#442 = UNCERTAINTY_MEASURE_WITH_UNIT(LENGTH_MEASURE(1.E-07),#439,
  'distance_accuracy_value','confusion accuracy');
#443 = PRODUCT_RELATED_PRODUCT_CATEGORY('part',$,(#7));
#444 = MECHANICAL_DESIGN_GEOMETRIC_PRESENTATION_REPRESENTATION('',(#445)
  ,#438);
#445 = STYLED_ITEM('color',(#446),#15);
#446 = PRESENTATION_STYLE_ASSIGNMENT((#447,#453));
#447 = SURFACE_STYLE_USAGE(.BOTH.,#448);
#448 = SURFACE_SIDE_STYLE('',(#449));
#449 = SURFACE_STYLE_FILL_AREA(#450);
#450 = FILL_AREA_STYLE('',(#451));
#451 = FILL_AREA_STYLE_COLOUR('',#452);
#452 = COLOUR_RGB('',0.447059003357,0.474510015008,0.501960993452);
#453 = CURVE_STYLE('',#454,POSITIVE_LENGTH_MEASURE(0.1),#455);
#454 = DRAUGHTING_PRE_DEFINED_CURVE_FONT('continuous');
#455 = COLOUR_RGB('',9.803921802644E-02,9.803921802644E-02,
  9.803921802644E-02);
ENDSEC;
END-ISO-10303-21;
