ISO-10303-21;
HEADER;
FILE_DESCRIPTION (( 'STEP AP214' ),
    '1' );
FILE_NAME ('ENTRETOISE 10MM.STEP',
    '2025-01-10T16:01:51',
    ( '' ),
    ( '' ),
    'SwSTEP 2.0',
    'SolidWorks 2025',
    '' );
FILE_SCHEMA (( 'AUTOMOTIVE_DESIGN' ));
ENDSEC;

DATA;
#1 = EDGE_LOOP ( 'NONE', ( #100 ) ) ;
#2 = EDGE_LOOP ( 'NONE', ( #50 ) ) ;
#3 = AXIS2_PLACEMENT_3D ( 'NONE', #101, #92, #66 ) ;
#4 = DIRECTION ( 'NONE',  ( -0.000000000000000000, -1.000000000000000000, -0.000000000000000000 ) ) ;
#5 = FACE_OUTER_BOUND ( 'NONE', #55, .T. ) ;
#6 = CARTESIAN_POINT ( 'NONE',  ( 0.000000000000000000, 30.00000000000000000, 5.000000000000000000 ) ) ;
#7 = PRODUCT_DEFINITION_FORMATION_WITH_SPECIFIED_SOURCE ( 'ANY', '', #104, .NOT_KNOWN. ) ;
#8 = APPLICATION_PROTOCOL_DEFINITION ( 'draft international standard', 'automotive_design', 1998, #38 ) ;
#9 = ADVANCED_FACE ( 'NONE', ( #39, #49 ), #40, .T. ) ;
#10 = DIRECTION ( 'NONE',  ( 0.000000000000000000, 0.000000000000000000, -1.000000000000000000 ) ) ;
#11 = EDGE_LOOP ( 'NONE', ( #51 ) ) ;
#12 = CLOSED_SHELL ( 'NONE', ( #15, #75, #9, #114 ) ) ;
#13 =( NAMED_UNIT ( * ) SI_UNIT ( $, .STERADIAN. ) SOLID_ANGLE_UNIT ( ) );
#14 = DIRECTION ( 'NONE',  ( 0.000000000000000000, -0.000000000000000000, 1.000000000000000000 ) ) ;
#15 = ADVANCED_FACE ( 'NONE', ( #108, #65 ), #110, .T. ) ;
#16 = CARTESIAN_POINT ( 'NONE',  ( 0.000000000000000000, 30.00000000000000000, 3.300000000000000266 ) ) ;
#17 = FILL_AREA_STYLE_COLOUR ( '', #27 ) ;
#18 = CARTESIAN_POINT ( 'NONE',  ( 0.000000000000000000, 30.00000000000000000, 0.000000000000000000 ) ) ;
#19 = PRESENTATION_STYLE_ASSIGNMENT (( #28 ) ) ;
#20 = DIRECTION ( 'NONE',  ( 0.000000000000000000, 1.000000000000000000, 0.000000000000000000 ) ) ;
#21 = FACE_BOUND ( 'NONE', #1, .T. ) ;
#22 = AXIS2_PLACEMENT_3D ( 'NONE', #18, #56, #111 ) ;
#23 = EDGE_CURVE ( 'NONE', #107, #107, #112, .T. ) ;
#24 = CARTESIAN_POINT ( 'NONE',  ( 0.000000000000000000, 0.000000000000000000, 0.000000000000000000 ) ) ;
#25 =( LENGTH_UNIT ( ) NAMED_UNIT ( * ) SI_UNIT ( .MILLI., .METRE. ) );
#26 = FILL_AREA_STYLE ('',( #17 ) ) ;
#27 = COLOUR_RGB ( '',0.7921568627450980005, 0.8196078431372548767, 0.9333333333333333481 ) ;
#28 = SURFACE_STYLE_USAGE ( .BOTH. , #90 ) ;
#29 = SURFACE_STYLE_FILL_AREA ( #26 ) ;
#30 = UNCERTAINTY_MEASURE_WITH_UNIT (LENGTH_MEASURE( 1.000000000000000082E-05 ), #31, 'distance_accuracy_value', 'NONE');
#31 =( LENGTH_UNIT ( ) NAMED_UNIT ( * ) SI_UNIT ( .MILLI., .METRE. ) );
#32 = VERTEX_POINT ( 'NONE', #72 ) ;
#33 = DIRECTION ( 'NONE',  ( 0.000000000000000000, 0.000000000000000000, -1.000000000000000000 ) ) ;
#34 = PRODUCT_DEFINITION ( 'UNKNOWN', '', #7, #105 ) ;
#35 = AXIS2_PLACEMENT_3D ( 'NONE', #77, #37, #10 ) ;
#36 = CARTESIAN_POINT ( 'NONE',  ( 0.000000000000000000, 0.000000000000000000, 5.000000000000000000 ) ) ;
#37 = DIRECTION ( 'NONE',  ( -0.000000000000000000, -1.000000000000000000, -0.000000000000000000 ) ) ;
#38 = APPLICATION_CONTEXT ( 'automotive_design' ) ;
#39 = FACE_OUTER_BOUND ( 'NONE', #84, .T. ) ;
#40 = CYLINDRICAL_SURFACE ( 'NONE', #35, 5.000000000000000000 ) ;
#41 = ORIENTED_EDGE ( 'NONE', *, *, #23, .F. ) ;
#42 = EDGE_CURVE ( 'NONE', #47, #47, #78, .T. ) ;
#43 = CYLINDRICAL_SURFACE ( 'NONE', #67, 3.300000000000000266 ) ;
#44 = AXIS2_PLACEMENT_3D ( 'NONE', #98, #20, #96 ) ;
#45 = PRODUCT_CONTEXT ( 'NONE', #46, 'mechanical' ) ;
#46 = APPLICATION_CONTEXT ( 'automotive_design' ) ;
#47 = VERTEX_POINT ( 'NONE', #16 ) ;
#48 = FACE_OUTER_BOUND ( 'NONE', #11, .T. ) ;
#49 = FACE_OUTER_BOUND ( 'NONE', #2, .T. ) ;
#50 = ORIENTED_EDGE ( 'NONE', *, *, #93, .T. ) ;
#51 = ORIENTED_EDGE ( 'NONE', *, *, #93, .F. ) ;
#52 = AXIS2_PLACEMENT_3D ( 'NONE', #69, #117, #88 ) ;
#53 = DIRECTION ( 'NONE',  ( 1.000000000000000000, 0.000000000000000000, 0.000000000000000000 ) ) ;
#54 = FACE_OUTER_BOUND ( 'NONE', #91, .T. ) ;
#55 = EDGE_LOOP ( 'NONE', ( #85 ) ) ;
#56 = DIRECTION ( 'NONE',  ( 0.000000000000000000, 1.000000000000000000, 0.000000000000000000 ) ) ;
#57 = EDGE_LOOP ( 'NONE', ( #86 ) ) ;
#58 = CARTESIAN_POINT ( 'NONE',  ( 0.000000000000000000, 30.00000000000000000, 0.000000000000000000 ) ) ;
#59 = PRODUCT_RELATED_PRODUCT_CATEGORY ( 'part', '', ( #104 ) ) ;
#60 = AXIS2_PLACEMENT_3D ( 'NONE', #24, #63, #53 ) ;
#61 =( NAMED_UNIT ( * ) PLANE_ANGLE_UNIT ( ) SI_UNIT ( $, .RADIAN. ) );
#62 = ADVANCED_BREP_SHAPE_REPRESENTATION ( 'ENTRETOISE 10MM', ( #70, #60 ), #95 ) ;
#63 = DIRECTION ( 'NONE',  ( 0.000000000000000000, 0.000000000000000000, 1.000000000000000000 ) ) ;
#64 =( NAMED_UNIT ( * ) PLANE_ANGLE_UNIT ( ) SI_UNIT ( $, .RADIAN. ) );
#65 = FACE_BOUND ( 'NONE', #79, .T. ) ;
#66 = DIRECTION ( 'NONE',  ( 0.000000000000000000, -0.000000000000000000, 1.000000000000000000 ) ) ;
#67 = AXIS2_PLACEMENT_3D ( 'NONE', #87, #4, #33 ) ;
#68 = MECHANICAL_DESIGN_GEOMETRIC_PRESENTATION_REPRESENTATION (  '', ( #102 ), #97 ) ;
#69 = CARTESIAN_POINT ( 'NONE',  ( 0.000000000000000000, 0.000000000000000000, 0.000000000000000000 ) ) ;
#70 = MANIFOLD_SOLID_BREP ( 'Boss-Extrude1', #12 ) ;
#71 = APPLICATION_PROTOCOL_DEFINITION ( 'draft international standard', 'automotive_design', 1998, #46 ) ;
#72 = CARTESIAN_POINT ( 'NONE',  ( 0.000000000000000000, 0.000000000000000000, 3.300000000000000266 ) ) ;
#73 = CIRCLE ( 'NONE', #52, 5.000000000000000000 ) ;
#74 = ORIENTED_EDGE ( 'NONE', *, *, #42, .F. ) ;
#75 = ADVANCED_FACE ( 'NONE', ( #48, #21 ), #109, .F. ) ;
#76 = DIRECTION ( 'NONE',  ( 0.000000000000000000, 1.000000000000000000, 0.000000000000000000 ) ) ;
#77 = CARTESIAN_POINT ( 'NONE',  ( 0.000000000000000000, 30.00000000000000000, 0.000000000000000000 ) ) ;
#78 = CIRCLE ( 'NONE', #22, 3.300000000000000266 ) ;
#79 = EDGE_LOOP ( 'NONE', ( #74 ) ) ;
#80 = PRESENTATION_LAYER_ASSIGNMENT (  '', '', ( #102 ) ) ;
#81 = DIRECTION ( 'NONE',  ( 0.000000000000000000, 1.000000000000000000, 0.000000000000000000 ) ) ;
#82 = SHAPE_DEFINITION_REPRESENTATION ( #113, #62 ) ;
#83 = DIRECTION ( 'NONE',  ( 0.000000000000000000, 0.000000000000000000, 1.000000000000000000 ) ) ;
#84 = EDGE_LOOP ( 'NONE', ( #41 ) ) ;
#85 = ORIENTED_EDGE ( 'NONE', *, *, #106, .F. ) ;
#86 = ORIENTED_EDGE ( 'NONE', *, *, #23, .T. ) ;
#87 = CARTESIAN_POINT ( 'NONE',  ( 0.000000000000000000, 30.00000000000000000, 0.000000000000000000 ) ) ;
#88 = DIRECTION ( 'NONE',  ( 0.000000000000000000, 0.000000000000000000, 1.000000000000000000 ) ) ;
#89 = ORIENTED_EDGE ( 'NONE', *, *, #42, .T. ) ;
#90 = SURFACE_SIDE_STYLE ('',( #29 ) ) ;
#91 = EDGE_LOOP ( 'NONE', ( #89 ) ) ;
#92 = DIRECTION ( 'NONE',  ( 0.000000000000000000, 1.000000000000000000, 0.000000000000000000 ) ) ;
#93 = EDGE_CURVE ( 'NONE', #119, #119, #73, .T. ) ;
#94 = AXIS2_PLACEMENT_3D ( 'NONE', #116, #81, #14 ) ;
#95 =( GEOMETRIC_REPRESENTATION_CONTEXT ( 3 ) GLOBAL_UNCERTAINTY_ASSIGNED_CONTEXT ( ( #30 ) ) GLOBAL_UNIT_ASSIGNED_CONTEXT ( ( #31, #61, #13 ) ) REPRESENTATION_CONTEXT ( 'NONE', 'WORKASPACE' ) );
#96 = DIRECTION ( 'NONE',  ( 0.000000000000000000, 0.000000000000000000, 1.000000000000000000 ) ) ;
#97 =( GEOMETRIC_REPRESENTATION_CONTEXT ( 3 ) GLOBAL_UNCERTAINTY_ASSIGNED_CONTEXT ( ( #115 ) ) GLOBAL_UNIT_ASSIGNED_CONTEXT ( ( #25, #64, #99 ) ) REPRESENTATION_CONTEXT ( 'NONE', 'WORKASPACE' ) );
#98 = CARTESIAN_POINT ( 'NONE',  ( 0.000000000000000000, 0.000000000000000000, 0.000000000000000000 ) ) ;
#99 =( NAMED_UNIT ( * ) SI_UNIT ( $, .STERADIAN. ) SOLID_ANGLE_UNIT ( ) );
#100 = ORIENTED_EDGE ( 'NONE', *, *, #106, .T. ) ;
#101 = CARTESIAN_POINT ( 'NONE',  ( 0.000000000000000000, 30.00000000000000000, 0.000000000000000000 ) ) ;
#102 = STYLED_ITEM ( 'NONE', ( #19 ), #70 ) ;
#103 = AXIS2_PLACEMENT_3D ( 'NONE', #58, #76, #83 ) ;
#104 = PRODUCT ( 'ENTRETOISE 10MM', 'ENTRETOISE 10MM', '', ( #45 ) ) ;
#105 = PRODUCT_DEFINITION_CONTEXT ( 'detailed design', #38, 'design' ) ;
#106 = EDGE_CURVE ( 'NONE', #32, #32, #118, .T. ) ;
#107 = VERTEX_POINT ( 'NONE', #6 ) ;
#108 = FACE_OUTER_BOUND ( 'NONE', #57, .T. ) ;
#109 = PLANE ( 'NONE',  #94 ) ;
#110 = PLANE ( 'NONE',  #3 ) ;
#111 = DIRECTION ( 'NONE',  ( 0.000000000000000000, 0.000000000000000000, 1.000000000000000000 ) ) ;
#112 = CIRCLE ( 'NONE', #103, 5.000000000000000000 ) ;
#113 = PRODUCT_DEFINITION_SHAPE ( 'NONE', 'NONE',  #34 ) ;
#114 = ADVANCED_FACE ( 'NONE', ( #54, #5 ), #43, .F. ) ;
#115 = UNCERTAINTY_MEASURE_WITH_UNIT (LENGTH_MEASURE( 1.000000000000000082E-05 ), #25, 'distance_accuracy_value', 'NONE');
#116 = CARTESIAN_POINT ( 'NONE',  ( 0.000000000000000000, 0.000000000000000000, 0.000000000000000000 ) ) ;
#117 = DIRECTION ( 'NONE',  ( 0.000000000000000000, 1.000000000000000000, 0.000000000000000000 ) ) ;
#118 = CIRCLE ( 'NONE', #44, 3.300000000000000266 ) ;
#119 = VERTEX_POINT ( 'NONE', #36 ) ;
ENDSEC;
END-ISO-10303-21;
