ISO-10303-21;
HEADER;
/* Generated by software containing ST-Developer
 * from STEP Tools, Inc. (www.steptools.com) 
 */

FILE_DESCRIPTION(
/* description */ ('',
'CAx-IF Rec.Pracs.---Representation and Presentation of Product Manufa
cturing Information (PMI)---4.0---2014-10-13'),
/* implementation_level */ '2;1');

FILE_NAME(
/* name */ 'Bague 1.step',
/* time_stamp */ '2025-01-11T19:22:22+01:00',
/* author */ (''),
/* organization */ (''),
/* preprocessor_version */ 'ST-DEVELOPER v20',
/* originating_system */ 'Autodesk Translation Framework v13.20.0.188',

/* authorisation */ '');

FILE_SCHEMA (('AP242_MANAGED_MODEL_BASED_3D_ENGINEERING_MIM_LF { 1 0 10303 442 1 1 4 }'));
ENDSEC;

DATA;
#10=MECHANICAL_DESIGN_GEOMETRIC_PRESENTATION_REPRESENTATION('',(#13),#187);
#11=SHAPE_REPRESENTATION_RELATIONSHIP('SRR','None',#194,#12);
#12=ADVANCED_BREP_SHAPE_REPRESENTATION('',(#14),#186);
#13=STYLED_ITEM('',(#203),#14);
#14=MANIFOLD_SOLID_BREP('Corps1',#96);
#15=LINE('',#173,#17);
#16=LINE('',#181,#18);
#17=VECTOR('',#143,23.5);
#18=VECTOR('',#154,30.);
#19=CYLINDRICAL_SURFACE('',#117,23.5);
#20=CYLINDRICAL_SURFACE('',#122,30.);
#21=FACE_BOUND('',#33,.T.);
#22=FACE_BOUND('',#38,.T.);
#23=PLANE('',#115);
#24=PLANE('',#124);
#25=FACE_OUTER_BOUND('',#31,.T.);
#26=FACE_OUTER_BOUND('',#32,.T.);
#27=FACE_OUTER_BOUND('',#34,.T.);
#28=FACE_OUTER_BOUND('',#35,.T.);
#29=FACE_OUTER_BOUND('',#36,.T.);
#30=FACE_OUTER_BOUND('',#37,.T.);
#31=EDGE_LOOP('',(#66,#67,#68,#69,#70));
#32=EDGE_LOOP('',(#71));
#33=EDGE_LOOP('',(#72));
#34=EDGE_LOOP('',(#73,#74,#75,#76,#77));
#35=EDGE_LOOP('',(#78,#79,#80,#81));
#36=EDGE_LOOP('',(#82,#83,#84,#85));
#37=EDGE_LOOP('',(#86));
#38=EDGE_LOOP('',(#87));
#39=CIRCLE('',#111,25.);
#40=CIRCLE('',#112,1.5);
#41=CIRCLE('',#113,23.5);
#42=CIRCLE('',#114,23.5);
#43=CIRCLE('',#116,28.5);
#44=CIRCLE('',#118,23.5);
#45=CIRCLE('',#120,1.5);
#46=CIRCLE('',#121,30.);
#47=CIRCLE('',#123,30.);
#48=VERTEX_POINT('',#161);
#49=VERTEX_POINT('',#163);
#50=VERTEX_POINT('',#165);
#51=VERTEX_POINT('',#169);
#52=VERTEX_POINT('',#172);
#53=VERTEX_POINT('',#176);
#54=VERTEX_POINT('',#180);
#55=EDGE_CURVE('',#48,#48,#39,.T.);
#56=EDGE_CURVE('',#48,#49,#40,.T.);
#57=EDGE_CURVE('',#49,#50,#41,.T.);
#58=EDGE_CURVE('',#50,#49,#42,.T.);
#59=EDGE_CURVE('',#51,#51,#43,.T.);
#60=EDGE_CURVE('',#50,#52,#15,.T.);
#61=EDGE_CURVE('',#52,#52,#44,.T.);
#62=EDGE_CURVE('',#51,#53,#45,.T.);
#63=EDGE_CURVE('',#53,#53,#46,.T.);
#64=EDGE_CURVE('',#53,#54,#16,.T.);
#65=EDGE_CURVE('',#54,#54,#47,.T.);
#66=ORIENTED_EDGE('',*,*,#55,.T.);
#67=ORIENTED_EDGE('',*,*,#56,.T.);
#68=ORIENTED_EDGE('',*,*,#57,.T.);
#69=ORIENTED_EDGE('',*,*,#58,.T.);
#70=ORIENTED_EDGE('',*,*,#56,.F.);
#71=ORIENTED_EDGE('',*,*,#59,.F.);
#72=ORIENTED_EDGE('',*,*,#55,.F.);
#73=ORIENTED_EDGE('',*,*,#58,.F.);
#74=ORIENTED_EDGE('',*,*,#60,.T.);
#75=ORIENTED_EDGE('',*,*,#61,.T.);
#76=ORIENTED_EDGE('',*,*,#60,.F.);
#77=ORIENTED_EDGE('',*,*,#57,.F.);
#78=ORIENTED_EDGE('',*,*,#59,.T.);
#79=ORIENTED_EDGE('',*,*,#62,.T.);
#80=ORIENTED_EDGE('',*,*,#63,.T.);
#81=ORIENTED_EDGE('',*,*,#62,.F.);
#82=ORIENTED_EDGE('',*,*,#63,.F.);
#83=ORIENTED_EDGE('',*,*,#64,.T.);
#84=ORIENTED_EDGE('',*,*,#65,.T.);
#85=ORIENTED_EDGE('',*,*,#64,.F.);
#86=ORIENTED_EDGE('',*,*,#65,.F.);
#87=ORIENTED_EDGE('',*,*,#61,.F.);
#88=TOROIDAL_SURFACE('',#110,25.,1.5);
#89=TOROIDAL_SURFACE('',#119,28.5,1.5);
#90=ADVANCED_FACE('',(#25),#88,.T.);
#91=ADVANCED_FACE('',(#26,#21),#23,.T.);
#92=ADVANCED_FACE('',(#27),#19,.F.);
#93=ADVANCED_FACE('',(#28),#89,.T.);
#94=ADVANCED_FACE('',(#29),#20,.T.);
#95=ADVANCED_FACE('',(#30,#22),#24,.F.);
#96=CLOSED_SHELL('',(#90,#91,#92,#93,#94,#95));
#97=DERIVED_UNIT_ELEMENT(#99,1.);
#98=DERIVED_UNIT_ELEMENT(#189,-3.);
#99=(
MASS_UNIT()
NAMED_UNIT(*)
SI_UNIT(.KILO.,.GRAM.)
);
#100=DERIVED_UNIT((#97,#98));
#101=MEASURE_REPRESENTATION_ITEM('density measure',
POSITIVE_RATIO_MEASURE(7850.),#100);
#102=PROPERTY_DEFINITION_REPRESENTATION(#107,#104);
#103=PROPERTY_DEFINITION_REPRESENTATION(#108,#105);
#104=REPRESENTATION('material name',(#106),#186);
#105=REPRESENTATION('density',(#101),#186);
#106=DESCRIPTIVE_REPRESENTATION_ITEM('Acier','Acier');
#107=PROPERTY_DEFINITION('material property','material name',#196);
#108=PROPERTY_DEFINITION('material property','density of part',#196);
#109=AXIS2_PLACEMENT_3D('',#159,#125,#126);
#110=AXIS2_PLACEMENT_3D('',#160,#127,#128);
#111=AXIS2_PLACEMENT_3D('',#162,#129,#130);
#112=AXIS2_PLACEMENT_3D('',#164,#131,#132);
#113=AXIS2_PLACEMENT_3D('',#166,#133,#134);
#114=AXIS2_PLACEMENT_3D('',#167,#135,#136);
#115=AXIS2_PLACEMENT_3D('',#168,#137,#138);
#116=AXIS2_PLACEMENT_3D('',#170,#139,#140);
#117=AXIS2_PLACEMENT_3D('',#171,#141,#142);
#118=AXIS2_PLACEMENT_3D('',#174,#144,#145);
#119=AXIS2_PLACEMENT_3D('',#175,#146,#147);
#120=AXIS2_PLACEMENT_3D('',#177,#148,#149);
#121=AXIS2_PLACEMENT_3D('',#178,#150,#151);
#122=AXIS2_PLACEMENT_3D('',#179,#152,#153);
#123=AXIS2_PLACEMENT_3D('',#182,#155,#156);
#124=AXIS2_PLACEMENT_3D('',#183,#157,#158);
#125=DIRECTION('axis',(0.,0.,1.));
#126=DIRECTION('refdir',(1.,0.,0.));
#127=DIRECTION('center_axis',(0.,0.,-1.));
#128=DIRECTION('ref_axis',(-1.,0.,0.));
#129=DIRECTION('center_axis',(0.,0.,1.));
#130=DIRECTION('ref_axis',(1.,0.,0.));
#131=DIRECTION('center_axis',(-1.22464679914735E-16,-1.,0.));
#132=DIRECTION('ref_axis',(1.,-1.22464679914735E-16,0.));
#133=DIRECTION('center_axis',(0.,0.,-1.));
#134=DIRECTION('ref_axis',(1.,0.,0.));
#135=DIRECTION('center_axis',(0.,0.,-1.));
#136=DIRECTION('ref_axis',(1.,0.,0.));
#137=DIRECTION('center_axis',(0.,0.,1.));
#138=DIRECTION('ref_axis',(1.,0.,0.));
#139=DIRECTION('center_axis',(0.,0.,-1.));
#140=DIRECTION('ref_axis',(1.,0.,0.));
#141=DIRECTION('center_axis',(0.,0.,1.));
#142=DIRECTION('ref_axis',(1.,0.,0.));
#143=DIRECTION('',(0.,0.,-1.));
#144=DIRECTION('center_axis',(0.,0.,-1.));
#145=DIRECTION('ref_axis',(1.,0.,0.));
#146=DIRECTION('center_axis',(0.,0.,1.));
#147=DIRECTION('ref_axis',(1.,0.,0.));
#148=DIRECTION('center_axis',(1.22464679914735E-16,-1.,0.));
#149=DIRECTION('ref_axis',(-1.,-1.22464679914735E-16,0.));
#150=DIRECTION('center_axis',(0.,0.,1.));
#151=DIRECTION('ref_axis',(1.,0.,0.));
#152=DIRECTION('center_axis',(0.,0.,1.));
#153=DIRECTION('ref_axis',(1.,0.,0.));
#154=DIRECTION('',(0.,0.,-1.));
#155=DIRECTION('center_axis',(0.,0.,1.));
#156=DIRECTION('ref_axis',(1.,0.,0.));
#157=DIRECTION('center_axis',(0.,0.,1.));
#158=DIRECTION('ref_axis',(1.,0.,0.));
#159=CARTESIAN_POINT('',(0.,0.,0.));
#160=CARTESIAN_POINT('Origin',(0.,0.,3.5));
#161=CARTESIAN_POINT('',(25.,-3.06161699786838E-15,5.));
#162=CARTESIAN_POINT('Origin',(0.,0.,5.));
#163=CARTESIAN_POINT('',(23.5,-2.87791997799628E-15,3.5));
#164=CARTESIAN_POINT('Origin',(25.,-3.06161699786838E-15,3.5));
#165=CARTESIAN_POINT('',(-23.5,2.87791997799628E-15,3.5));
#166=CARTESIAN_POINT('Origin',(0.,0.,3.5));
#167=CARTESIAN_POINT('Origin',(0.,0.,3.5));
#168=CARTESIAN_POINT('Origin',(0.,0.,5.));
#169=CARTESIAN_POINT('',(-28.5,3.49024337756996E-15,5.));
#170=CARTESIAN_POINT('Origin',(0.,0.,5.));
#171=CARTESIAN_POINT('Origin',(0.,0.,0.));
#172=CARTESIAN_POINT('',(-23.5,-2.87791997799628E-15,0.));
#173=CARTESIAN_POINT('',(-23.5,-2.87791997799628E-15,0.));
#174=CARTESIAN_POINT('Origin',(0.,0.,0.));
#175=CARTESIAN_POINT('Origin',(0.,0.,3.5));
#176=CARTESIAN_POINT('',(-30.,-3.67394039744206E-15,3.5));
#177=CARTESIAN_POINT('Origin',(-28.5,-3.49024337756996E-15,3.5));
#178=CARTESIAN_POINT('Origin',(0.,0.,3.5));
#179=CARTESIAN_POINT('Origin',(0.,0.,0.));
#180=CARTESIAN_POINT('',(-30.,-3.67394039744206E-15,0.));
#181=CARTESIAN_POINT('',(-30.,-3.67394039744206E-15,0.));
#182=CARTESIAN_POINT('Origin',(0.,0.,0.));
#183=CARTESIAN_POINT('Origin',(0.,0.,0.));
#184=UNCERTAINTY_MEASURE_WITH_UNIT(LENGTH_MEASURE(0.01),#188,
'DISTANCE_ACCURACY_VALUE',
'Maximum model space distance between geometric entities at asserted c
onnectivities');
#185=UNCERTAINTY_MEASURE_WITH_UNIT(LENGTH_MEASURE(0.01),#188,
'DISTANCE_ACCURACY_VALUE',
'Maximum model space distance between geometric entities at asserted c
onnectivities');
#186=(
GEOMETRIC_REPRESENTATION_CONTEXT(3)
GLOBAL_UNCERTAINTY_ASSIGNED_CONTEXT((#184))
GLOBAL_UNIT_ASSIGNED_CONTEXT((#188,#190,#191))
REPRESENTATION_CONTEXT('','3D')
);
#187=(
GEOMETRIC_REPRESENTATION_CONTEXT(3)
GLOBAL_UNCERTAINTY_ASSIGNED_CONTEXT((#185))
GLOBAL_UNIT_ASSIGNED_CONTEXT((#188,#190,#191))
REPRESENTATION_CONTEXT('','3D')
);
#188=(
LENGTH_UNIT()
NAMED_UNIT(*)
SI_UNIT(.MILLI.,.METRE.)
);
#189=(
LENGTH_UNIT()
NAMED_UNIT(*)
SI_UNIT($,.METRE.)
);
#190=(
NAMED_UNIT(*)
PLANE_ANGLE_UNIT()
SI_UNIT($,.RADIAN.)
);
#191=(
NAMED_UNIT(*)
SI_UNIT($,.STERADIAN.)
SOLID_ANGLE_UNIT()
);
#192=SHAPE_DEFINITION_REPRESENTATION(#193,#194);
#193=PRODUCT_DEFINITION_SHAPE('',$,#196);
#194=SHAPE_REPRESENTATION('',(#109),#186);
#195=PRODUCT_DEFINITION_CONTEXT('part definition',#200,'design');
#196=PRODUCT_DEFINITION('Bague 1','Bague 1',#197,#195);
#197=PRODUCT_DEFINITION_FORMATION('',$,#202);
#198=PRODUCT_RELATED_PRODUCT_CATEGORY('Bague 1','Bague 1',(#202));
#199=APPLICATION_PROTOCOL_DEFINITION('international standard',
'ap242_managed_model_based_3d_engineering',2011,#200);
#200=APPLICATION_CONTEXT('Managed model based 3d engineering');
#201=PRODUCT_CONTEXT('part definition',#200,'mechanical');
#202=PRODUCT('Bague 1','Bague 1',$,(#201));
#203=PRESENTATION_STYLE_ASSIGNMENT((#204));
#204=SURFACE_STYLE_USAGE(.BOTH.,#205);
#205=SURFACE_SIDE_STYLE('',(#206));
#206=SURFACE_STYLE_FILL_AREA(#207);
#207=FILL_AREA_STYLE('Acier - Satin\X\E9',(#208));
#208=FILL_AREA_STYLE_COLOUR('Acier - Satin\X\E9',#209);
#209=COLOUR_RGB('Acier - Satin\X\E9',0.627450980392157,0.627450980392157,
0.627450980392157);
ENDSEC;
END-ISO-10303-21;
