ISO-10303-21;
HEADER;
/* Generated by software containing ST-Developer
 * from STEP Tools, Inc. (www.steptools.com) 
 */

FILE_DESCRIPTION(
/* description */ ('',
'CAx-IF Rec.Pracs.---Representation and Presentation of Product Manufa
cturing Information (PMI)---4.0---2014-10-13'),
/* implementation_level */ '2;1');

FILE_NAME(
/* name */ 'Bague 2.step',
/* time_stamp */ '2025-01-11T19:22:43+01:00',
/* author */ (''),
/* organization */ (''),
/* preprocessor_version */ 'ST-DEVELOPER v20',
/* originating_system */ 'Autodesk Translation Framework v13.20.0.188',

/* authorisation */ '');

FILE_SCHEMA (('AP242_MANAGED_MODEL_BASED_3D_ENGINEERING_MIM_LF { 1 0 10303 442 1 1 4 }'));
ENDSEC;

DATA;
#10=MECHANICAL_DESIGN_GEOMETRIC_PRESENTATION_REPRESENTATION('',(#13),#161);
#11=SHAPE_REPRESENTATION_RELATIONSHIP('SRR','None',#168,#12);
#12=ADVANCED_BREP_SHAPE_REPRESENTATION('',(#14),#160);
#13=STYLED_ITEM('',(#177),#14);
#14=MANIFOLD_SOLID_BREP('Corps1',#83);
#15=FACE_BOUND('',#33,.T.);
#16=FACE_BOUND('',#36,.T.);
#17=PLANE('',#104);
#18=PLANE('',#108);
#19=LINE('',#148,#21);
#20=LINE('',#155,#22);
#21=VECTOR('',#123,20.);
#22=VECTOR('',#132,23.5);
#23=CYLINDRICAL_SURFACE('',#102,20.);
#24=CYLINDRICAL_SURFACE('',#106,23.5);
#25=FACE_OUTER_BOUND('',#30,.T.);
#26=FACE_OUTER_BOUND('',#31,.T.);
#27=FACE_OUTER_BOUND('',#32,.T.);
#28=FACE_OUTER_BOUND('',#34,.T.);
#29=FACE_OUTER_BOUND('',#35,.T.);
#30=EDGE_LOOP('',(#59,#60,#61,#62,#63));
#31=EDGE_LOOP('',(#64,#65,#66,#67,#68));
#32=EDGE_LOOP('',(#69));
#33=EDGE_LOOP('',(#70));
#34=EDGE_LOOP('',(#71,#72,#73,#74));
#35=EDGE_LOOP('',(#75));
#36=EDGE_LOOP('',(#76));
#37=CIRCLE('',#98,21.5);
#38=CIRCLE('',#99,1.5);
#39=CIRCLE('',#100,20.);
#40=CIRCLE('',#101,20.);
#41=CIRCLE('',#103,20.);
#42=CIRCLE('',#105,23.5);
#43=CIRCLE('',#107,23.5);
#44=VERTEX_POINT('',#139);
#45=VERTEX_POINT('',#141);
#46=VERTEX_POINT('',#143);
#47=VERTEX_POINT('',#147);
#48=VERTEX_POINT('',#151);
#49=VERTEX_POINT('',#154);
#50=EDGE_CURVE('',#44,#44,#37,.T.);
#51=EDGE_CURVE('',#44,#45,#38,.T.);
#52=EDGE_CURVE('',#45,#46,#39,.T.);
#53=EDGE_CURVE('',#46,#45,#40,.T.);
#54=EDGE_CURVE('',#46,#47,#19,.T.);
#55=EDGE_CURVE('',#47,#47,#41,.T.);
#56=EDGE_CURVE('',#48,#48,#42,.T.);
#57=EDGE_CURVE('',#48,#49,#20,.T.);
#58=EDGE_CURVE('',#49,#49,#43,.T.);
#59=ORIENTED_EDGE('',*,*,#50,.T.);
#60=ORIENTED_EDGE('',*,*,#51,.T.);
#61=ORIENTED_EDGE('',*,*,#52,.T.);
#62=ORIENTED_EDGE('',*,*,#53,.T.);
#63=ORIENTED_EDGE('',*,*,#51,.F.);
#64=ORIENTED_EDGE('',*,*,#53,.F.);
#65=ORIENTED_EDGE('',*,*,#54,.T.);
#66=ORIENTED_EDGE('',*,*,#55,.T.);
#67=ORIENTED_EDGE('',*,*,#54,.F.);
#68=ORIENTED_EDGE('',*,*,#52,.F.);
#69=ORIENTED_EDGE('',*,*,#56,.T.);
#70=ORIENTED_EDGE('',*,*,#50,.F.);
#71=ORIENTED_EDGE('',*,*,#56,.F.);
#72=ORIENTED_EDGE('',*,*,#57,.T.);
#73=ORIENTED_EDGE('',*,*,#58,.T.);
#74=ORIENTED_EDGE('',*,*,#57,.F.);
#75=ORIENTED_EDGE('',*,*,#58,.F.);
#76=ORIENTED_EDGE('',*,*,#55,.F.);
#77=TOROIDAL_SURFACE('',#97,21.5,1.5);
#78=ADVANCED_FACE('',(#25),#77,.T.);
#79=ADVANCED_FACE('',(#26),#23,.F.);
#80=ADVANCED_FACE('',(#27,#15),#17,.T.);
#81=ADVANCED_FACE('',(#28),#24,.T.);
#82=ADVANCED_FACE('',(#29,#16),#18,.F.);
#83=CLOSED_SHELL('',(#78,#79,#80,#81,#82));
#84=DERIVED_UNIT_ELEMENT(#86,1.);
#85=DERIVED_UNIT_ELEMENT(#163,-3.);
#86=(
MASS_UNIT()
NAMED_UNIT(*)
SI_UNIT(.KILO.,.GRAM.)
);
#87=DERIVED_UNIT((#84,#85));
#88=MEASURE_REPRESENTATION_ITEM('density measure',
POSITIVE_RATIO_MEASURE(7850.),#87);
#89=PROPERTY_DEFINITION_REPRESENTATION(#94,#91);
#90=PROPERTY_DEFINITION_REPRESENTATION(#95,#92);
#91=REPRESENTATION('material name',(#93),#160);
#92=REPRESENTATION('density',(#88),#160);
#93=DESCRIPTIVE_REPRESENTATION_ITEM('Acier','Acier');
#94=PROPERTY_DEFINITION('material property','material name',#170);
#95=PROPERTY_DEFINITION('material property','density of part',#170);
#96=AXIS2_PLACEMENT_3D('',#137,#109,#110);
#97=AXIS2_PLACEMENT_3D('',#138,#111,#112);
#98=AXIS2_PLACEMENT_3D('',#140,#113,#114);
#99=AXIS2_PLACEMENT_3D('',#142,#115,#116);
#100=AXIS2_PLACEMENT_3D('',#144,#117,#118);
#101=AXIS2_PLACEMENT_3D('',#145,#119,#120);
#102=AXIS2_PLACEMENT_3D('',#146,#121,#122);
#103=AXIS2_PLACEMENT_3D('',#149,#124,#125);
#104=AXIS2_PLACEMENT_3D('',#150,#126,#127);
#105=AXIS2_PLACEMENT_3D('',#152,#128,#129);
#106=AXIS2_PLACEMENT_3D('',#153,#130,#131);
#107=AXIS2_PLACEMENT_3D('',#156,#133,#134);
#108=AXIS2_PLACEMENT_3D('',#157,#135,#136);
#109=DIRECTION('axis',(0.,0.,1.));
#110=DIRECTION('refdir',(1.,0.,0.));
#111=DIRECTION('center_axis',(0.,0.,-1.));
#112=DIRECTION('ref_axis',(-1.,0.,0.));
#113=DIRECTION('center_axis',(0.,0.,1.));
#114=DIRECTION('ref_axis',(1.,0.,0.));
#115=DIRECTION('center_axis',(-1.22464679914735E-16,-1.,0.));
#116=DIRECTION('ref_axis',(1.,-1.22464679914735E-16,0.));
#117=DIRECTION('center_axis',(0.,0.,-1.));
#118=DIRECTION('ref_axis',(1.,0.,0.));
#119=DIRECTION('center_axis',(0.,0.,-1.));
#120=DIRECTION('ref_axis',(1.,0.,0.));
#121=DIRECTION('center_axis',(0.,0.,1.));
#122=DIRECTION('ref_axis',(1.,0.,0.));
#123=DIRECTION('',(0.,0.,-1.));
#124=DIRECTION('center_axis',(0.,0.,-1.));
#125=DIRECTION('ref_axis',(1.,0.,0.));
#126=DIRECTION('center_axis',(0.,0.,1.));
#127=DIRECTION('ref_axis',(1.,0.,0.));
#128=DIRECTION('center_axis',(0.,0.,1.));
#129=DIRECTION('ref_axis',(1.,0.,0.));
#130=DIRECTION('center_axis',(0.,0.,1.));
#131=DIRECTION('ref_axis',(1.,0.,0.));
#132=DIRECTION('',(0.,0.,-1.));
#133=DIRECTION('center_axis',(0.,0.,1.));
#134=DIRECTION('ref_axis',(1.,0.,0.));
#135=DIRECTION('center_axis',(0.,0.,1.));
#136=DIRECTION('ref_axis',(1.,0.,0.));
#137=CARTESIAN_POINT('',(0.,0.,0.));
#138=CARTESIAN_POINT('Origin',(0.,0.,1.5));
#139=CARTESIAN_POINT('',(21.5,-2.63299061816681E-15,3.));
#140=CARTESIAN_POINT('Origin',(0.,0.,3.));
#141=CARTESIAN_POINT('',(20.,-2.44929359829471E-15,1.5));
#142=CARTESIAN_POINT('Origin',(21.5,-2.63299061816681E-15,1.5));
#143=CARTESIAN_POINT('',(-20.,2.44929359829471E-15,1.5));
#144=CARTESIAN_POINT('Origin',(0.,0.,1.5));
#145=CARTESIAN_POINT('Origin',(0.,0.,1.5));
#146=CARTESIAN_POINT('Origin',(0.,0.,0.));
#147=CARTESIAN_POINT('',(-20.,-2.44929359829471E-15,0.));
#148=CARTESIAN_POINT('',(-20.,-2.44929359829471E-15,0.));
#149=CARTESIAN_POINT('Origin',(0.,0.,0.));
#150=CARTESIAN_POINT('Origin',(0.,0.,3.));
#151=CARTESIAN_POINT('',(-23.5,-2.87791997799628E-15,3.));
#152=CARTESIAN_POINT('Origin',(0.,0.,3.));
#153=CARTESIAN_POINT('Origin',(0.,0.,0.));
#154=CARTESIAN_POINT('',(-23.5,-2.87791997799628E-15,0.));
#155=CARTESIAN_POINT('',(-23.5,-2.87791997799628E-15,0.));
#156=CARTESIAN_POINT('Origin',(0.,0.,0.));
#157=CARTESIAN_POINT('Origin',(0.,0.,0.));
#158=UNCERTAINTY_MEASURE_WITH_UNIT(LENGTH_MEASURE(0.01),#162,
'DISTANCE_ACCURACY_VALUE',
'Maximum model space distance between geometric entities at asserted c
onnectivities');
#159=UNCERTAINTY_MEASURE_WITH_UNIT(LENGTH_MEASURE(0.01),#162,
'DISTANCE_ACCURACY_VALUE',
'Maximum model space distance between geometric entities at asserted c
onnectivities');
#160=(
GEOMETRIC_REPRESENTATION_CONTEXT(3)
GLOBAL_UNCERTAINTY_ASSIGNED_CONTEXT((#158))
GLOBAL_UNIT_ASSIGNED_CONTEXT((#162,#164,#165))
REPRESENTATION_CONTEXT('','3D')
);
#161=(
GEOMETRIC_REPRESENTATION_CONTEXT(3)
GLOBAL_UNCERTAINTY_ASSIGNED_CONTEXT((#159))
GLOBAL_UNIT_ASSIGNED_CONTEXT((#162,#164,#165))
REPRESENTATION_CONTEXT('','3D')
);
#162=(
LENGTH_UNIT()
NAMED_UNIT(*)
SI_UNIT(.MILLI.,.METRE.)
);
#163=(
LENGTH_UNIT()
NAMED_UNIT(*)
SI_UNIT($,.METRE.)
);
#164=(
NAMED_UNIT(*)
PLANE_ANGLE_UNIT()
SI_UNIT($,.RADIAN.)
);
#165=(
NAMED_UNIT(*)
SI_UNIT($,.STERADIAN.)
SOLID_ANGLE_UNIT()
);
#166=SHAPE_DEFINITION_REPRESENTATION(#167,#168);
#167=PRODUCT_DEFINITION_SHAPE('',$,#170);
#168=SHAPE_REPRESENTATION('',(#96),#160);
#169=PRODUCT_DEFINITION_CONTEXT('part definition',#174,'design');
#170=PRODUCT_DEFINITION('Bague 2','Bague 2',#171,#169);
#171=PRODUCT_DEFINITION_FORMATION('',$,#176);
#172=PRODUCT_RELATED_PRODUCT_CATEGORY('Bague 2','Bague 2',(#176));
#173=APPLICATION_PROTOCOL_DEFINITION('international standard',
'ap242_managed_model_based_3d_engineering',2011,#174);
#174=APPLICATION_CONTEXT('Managed model based 3d engineering');
#175=PRODUCT_CONTEXT('part definition',#174,'mechanical');
#176=PRODUCT('Bague 2','Bague 2',$,(#175));
#177=PRESENTATION_STYLE_ASSIGNMENT((#178));
#178=SURFACE_STYLE_USAGE(.BOTH.,#179);
#179=SURFACE_SIDE_STYLE('',(#180));
#180=SURFACE_STYLE_FILL_AREA(#181);
#181=FILL_AREA_STYLE('Acier - Satin\X\E9',(#182));
#182=FILL_AREA_STYLE_COLOUR('Acier - Satin\X\E9',#183);
#183=COLOUR_RGB('Acier - Satin\X\E9',0.627450980392157,0.627450980392157,
0.627450980392157);
ENDSEC;
END-ISO-10303-21;
