ISO-10303-21;
HEADER;
FILE_DESCRIPTION( ( 'STEP AP203' ), '1' );
FILE_NAME( ' ', '  ', ( '  ' ), ( '  ' ), 'PSStep 10.1', '  ', '  ' );
FILE_SCHEMA( ( 'CONFIG_CONTROL_DESIGN' ) );
ENDSEC;
DATA;
#1 = DESIGN_CONTEXT( '', #27, 'design' );
#2 = APPLICATION_PROTOCOL_DEFINITION( 'INTERNATIONAL STANDARD', 'config_control_design', 1994, #27 );
#3 = PRODUCT_CATEGORY_RELATIONSHIP( 'NONE', 'NONE', #28, #29 );
#4 = DATE_AND_TIME( #30, #31 );
#5 = DATE_TIME_ROLE( 'creation_date' );
#6 = DATE_TIME_ROLE( 'classification_date' );
#7 = PERSON_AND_ORGANIZATION_ROLE( 'creator' );
#8 = PERSON_AND_ORGANIZATION_ROLE( 'design_supplier' );
#9 = PERSON_AND_ORGANIZATION_ROLE( 'classification_officer' );
#10 = PERSON_AND_ORGANIZATION_ROLE( 'design_owner' );
#11 = APPROVAL_PERSON_ORGANIZATION( #32, #33, #34 );
#12 = APPROVAL_DATE_TIME( #4, #33 );
#13 = CC_DESIGN_APPROVAL( #33, ( #35, #36, #37 ) );
#14 = CC_DESIGN_DATE_AND_TIME_ASSIGNMENT( #4, #5, ( #37 ) );
#15 = CC_DESIGN_DATE_AND_TIME_ASSIGNMENT( #4, #6, ( #35 ) );
#16 = CC_DESIGN_PERSON_AND_ORGANIZATION_ASSIGNMENT( #32, #10, ( #38 ) );
#17 = CC_DESIGN_PERSON_AND_ORGANIZATION_ASSIGNMENT( #32, #7, ( #37 ) );
#18 = CC_DESIGN_PERSON_AND_ORGANIZATION_ASSIGNMENT( #32, #7, ( #36 ) );
#19 = CC_DESIGN_PERSON_AND_ORGANIZATION_ASSIGNMENT( #32, #8, ( #36 ) );
#20 = CC_DESIGN_SECURITY_CLASSIFICATION( #35, ( #36 ) );
#21 = CC_DESIGN_PERSON_AND_ORGANIZATION_ASSIGNMENT( #32, #9, ( #35 ) );
#22 = SHAPE_DEFINITION_REPRESENTATION( #39, #40 );
#23 =  ( GEOMETRIC_REPRESENTATION_CONTEXT( 3 )GLOBAL_UNCERTAINTY_ASSIGNED_CONTEXT( ( #43 ) )GLOBAL_UNIT_ASSIGNED_CONTEXT( ( #45, #46, #47 ) )REPRESENTATION_CONTEXT( 'NONE', 'WORKSPACE' ) );
#27 = APPLICATION_CONTEXT( 'CONFIGURATION CONTROLLED 3D DESIGNS OF MECHANICAL PARTS AND ASSEMBLIES' );
#28 = PRODUCT_CATEGORY( 'part', 'NONE' );
#29 = PRODUCT_RELATED_PRODUCT_CATEGORY( 'detail', ' ', ( #38 ) );
#30 = CALENDAR_DATE( 2025, 27, 0 );
#31 = LOCAL_TIME( 16, 0, 23.0000000000000, #49 );
#32 = PERSON_AND_ORGANIZATION( #50, #51 );
#33 = APPROVAL( #52, 'SOLID MODEL' );
#34 = APPROVAL_ROLE( 'APPROVED' );
#35 = SECURITY_CLASSIFICATION( '', '', #53 );
#36 = PRODUCT_DEFINITION_FORMATION_WITH_SPECIFIED_SOURCE( ' ', 'NONE', #38, .NOT_KNOWN. );
#37 = PRODUCT_DEFINITION( 'NONE', 'NONE', #36, #1 );
#38 = PRODUCT( '1', '1', 'PART-1-DESC', ( #54 ) );
#39 = PRODUCT_DEFINITION_SHAPE( 'NONE', 'NONE', #37 );
#40 = ADVANCED_BREP_SHAPE_REPRESENTATION( '1', ( #55, #56 ), #23 );
#43 = UNCERTAINTY_MEASURE_WITH_UNIT( LENGTH_MEASURE( 0.00100000000000000 ), #45, '', '' );
#45 =  ( CONVERSION_BASED_UNIT( 'MILLIMETRE', #59 )LENGTH_UNIT(  )NAMED_UNIT( #62 ) );
#46 =  ( NAMED_UNIT( #64 )PLANE_ANGLE_UNIT(  )SI_UNIT( $, .RADIAN. ) );
#47 =  ( NAMED_UNIT( #64 )SI_UNIT( $, .STERADIAN. )SOLID_ANGLE_UNIT(  ) );
#49 = COORDINATED_UNIVERSAL_TIME_OFFSET( 1, 0, .AHEAD. );
#50 = PERSON( '', 'UNSPECIFIED', $, $, $, $ );
#51 = ORGANIZATION( 'UNSPECIFIED', 'UNSPECIFIED', 'UNSPECIFIED' );
#52 = APPROVAL_STATUS( 'approved' );
#53 = SECURITY_CLASSIFICATION_LEVEL( 'unclassified' );
#54 = MECHANICAL_CONTEXT( '', #27, 'mechanical' );
#55 = MANIFOLD_SOLID_BREP( '1', #70 );
#56 = AXIS2_PLACEMENT_3D( '', #71, #72, #73 );
#59 = LENGTH_MEASURE_WITH_UNIT( LENGTH_MEASURE( 1.00000000000000 ), #74 );
#62 = DIMENSIONAL_EXPONENTS( 1.00000000000000, 0.000000000000000, 0.000000000000000, 0.000000000000000, 0.000000000000000, 0.000000000000000, 0.000000000000000 );
#64 = DIMENSIONAL_EXPONENTS( 0.000000000000000, 0.000000000000000, 0.000000000000000, 0.000000000000000, 0.000000000000000, 0.000000000000000, 0.000000000000000 );
#70 = CLOSED_SHELL( '', ( #75, #76, #77, #78, #79, #80, #81, #82, #83 ) );
#71 = CARTESIAN_POINT( '', ( 0.000000000000000, 0.000000000000000, 0.000000000000000 ) );
#72 = DIRECTION( '', ( 0.000000000000000, 0.000000000000000, 1.00000000000000 ) );
#73 = DIRECTION( '', ( 1.00000000000000, 0.000000000000000, 0.000000000000000 ) );
#74 =  ( LENGTH_UNIT(  )NAMED_UNIT( #62 )SI_UNIT( .MILLI., .METRE. ) );
#75 = ADVANCED_FACE( '', ( #85, #86 ), #87, .T. );
#76 = ADVANCED_FACE( '', ( #88, #89 ), #90, .T. );
#77 = ADVANCED_FACE( '', ( #91 ), #92, .T. );
#78 = ADVANCED_FACE( '', ( #93 ), #94, .F. );
#79 = ADVANCED_FACE( '', ( #95 ), #96, .T. );
#80 = ADVANCED_FACE( '', ( #97 ), #98, .T. );
#81 = ADVANCED_FACE( '', ( #99 ), #100, .T. );
#82 = ADVANCED_FACE( '', ( #101, #102 ), #103, .F. );
#83 = ADVANCED_FACE( '', ( #104 ), #105, .T. );
#85 = FACE_BOUND( '', #106, .T. );
#86 = FACE_OUTER_BOUND( '', #107, .T. );
#87 = PLANE( '', #108 );
#88 = FACE_BOUND( '', #109, .T. );
#89 = FACE_OUTER_BOUND( '', #110, .T. );
#90 = PLANE( '', #111 );
#91 = FACE_OUTER_BOUND( '', #112, .T. );
#92 = PLANE( '', #113 );
#93 = FACE_OUTER_BOUND( '', #114, .T. );
#94 = PLANE( '', #115 );
#95 = FACE_OUTER_BOUND( '', #116, .T. );
#96 = PLANE( '', #117 );
#97 = FACE_OUTER_BOUND( '', #118, .T. );
#98 = PLANE( '', #119 );
#99 = FACE_OUTER_BOUND( '', #120, .T. );
#100 = PLANE( '', #121 );
#101 = FACE_OUTER_BOUND( '', #122, .T. );
#102 = FACE_OUTER_BOUND( '', #123, .T. );
#103 = CYLINDRICAL_SURFACE( '', #124, 2.10000000000000 );
#104 = FACE_OUTER_BOUND( '', #125, .T. );
#105 = PLANE( '', #126 );
#106 = EDGE_LOOP( '', ( #127 ) );
#107 = EDGE_LOOP( '', ( #128, #129, #130, #131 ) );
#108 = AXIS2_PLACEMENT_3D( '', #132, #133, #134 );
#109 = EDGE_LOOP( '', ( #135 ) );
#110 = EDGE_LOOP( '', ( #136, #137, #138, #139 ) );
#111 = AXIS2_PLACEMENT_3D( '', #140, #141, #142 );
#112 = EDGE_LOOP( '', ( #143, #144, #145, #146 ) );
#113 = AXIS2_PLACEMENT_3D( '', #147, #148, #149 );
#114 = EDGE_LOOP( '', ( #150, #151, #152, #153, #154, #155 ) );
#115 = AXIS2_PLACEMENT_3D( '', #156, #157, #158 );
#116 = EDGE_LOOP( '', ( #159, #160, #161, #162 ) );
#117 = AXIS2_PLACEMENT_3D( '', #163, #164, #165 );
#118 = EDGE_LOOP( '', ( #166, #167, #168, #169 ) );
#119 = AXIS2_PLACEMENT_3D( '', #170, #171, #172 );
#120 = EDGE_LOOP( '', ( #173, #174, #175, #176, #177, #178 ) );
#121 = AXIS2_PLACEMENT_3D( '', #179, #180, #181 );
#122 = EDGE_LOOP( '', ( #182 ) );
#123 = EDGE_LOOP( '', ( #183 ) );
#124 = AXIS2_PLACEMENT_3D( '', #184, #185, #186 );
#125 = EDGE_LOOP( '', ( #187, #188, #189, #190 ) );
#126 = AXIS2_PLACEMENT_3D( '', #191, #192, #193 );
#127 = ORIENTED_EDGE( '', *, *, #194, .T. );
#128 = ORIENTED_EDGE( '', *, *, #195, .F. );
#129 = ORIENTED_EDGE( '', *, *, #196, .F. );
#130 = ORIENTED_EDGE( '', *, *, #197, .T. );
#131 = ORIENTED_EDGE( '', *, *, #198, .T. );
#132 = CARTESIAN_POINT( '', ( -40.0000000000000, 2.00000000000000, -7.80000000000000 ) );
#133 = DIRECTION( '', ( 0.000000000000000, -1.00000000000000, 0.000000000000000 ) );
#134 = DIRECTION( '', ( -1.00000000000000, 0.000000000000000, 0.000000000000000 ) );
#135 = ORIENTED_EDGE( '', *, *, #199, .F. );
#136 = ORIENTED_EDGE( '', *, *, #200, .F. );
#137 = ORIENTED_EDGE( '', *, *, #201, .F. );
#138 = ORIENTED_EDGE( '', *, *, #202, .T. );
#139 = ORIENTED_EDGE( '', *, *, #203, .T. );
#140 = CARTESIAN_POINT( '', ( -10.0000000000000, 10.0000000000000, -7.80000000000000 ) );
#141 = DIRECTION( '', ( -0.000000000000000, 1.00000000000000, 0.000000000000000 ) );
#142 = DIRECTION( '', ( 1.00000000000000, 0.000000000000000, 0.000000000000000 ) );
#143 = ORIENTED_EDGE( '', *, *, #204, .F. );
#144 = ORIENTED_EDGE( '', *, *, #205, .F. );
#145 = ORIENTED_EDGE( '', *, *, #206, .T. );
#146 = ORIENTED_EDGE( '', *, *, #201, .T. );
#147 = CARTESIAN_POINT( '', ( -10.0000000000000, 5.00000000000000, -7.80000000000000 ) );
#148 = DIRECTION( '', ( 1.00000000000000, 0.000000000000000, 0.000000000000000 ) );
#149 = DIRECTION( '', ( 0.000000000000000, -1.00000000000000, -0.000000000000000 ) );
#150 = ORIENTED_EDGE( '', *, *, #197, .F. );
#151 = ORIENTED_EDGE( '', *, *, #207, .F. );
#152 = ORIENTED_EDGE( '', *, *, #202, .F. );
#153 = ORIENTED_EDGE( '', *, *, #206, .F. );
#154 = ORIENTED_EDGE( '', *, *, #208, .F. );
#155 = ORIENTED_EDGE( '', *, *, #209, .F. );
#156 = CARTESIAN_POINT( '', ( -32.0000000000000, 2.00000000000000, -7.80000000000000 ) );
#157 = DIRECTION( '', ( 0.000000000000000, 0.000000000000000, 1.00000000000000 ) );
#158 = DIRECTION( '', ( 1.00000000000000, 0.000000000000000, 0.000000000000000 ) );
#159 = ORIENTED_EDGE( '', *, *, #210, .F. );
#160 = ORIENTED_EDGE( '', *, *, #198, .F. );
#161 = ORIENTED_EDGE( '', *, *, #209, .T. );
#162 = ORIENTED_EDGE( '', *, *, #211, .T. );
#163 = CARTESIAN_POINT( '', ( -32.0000000000000, 2.00000000000000, -7.80000000000000 ) );
#164 = DIRECTION( '', ( 1.00000000000000, 0.000000000000000, 0.000000000000000 ) );
#165 = DIRECTION( '', ( 0.000000000000000, -1.00000000000000, -0.000000000000000 ) );
#166 = ORIENTED_EDGE( '', *, *, #212, .F. );
#167 = ORIENTED_EDGE( '', *, *, #211, .F. );
#168 = ORIENTED_EDGE( '', *, *, #208, .T. );
#169 = ORIENTED_EDGE( '', *, *, #205, .T. );
#170 = CARTESIAN_POINT( '', ( -32.0000000000000, 5.00000000000000, -7.80000000000000 ) );
#171 = DIRECTION( '', ( 0.000000000000000, -1.00000000000000, 0.000000000000000 ) );
#172 = DIRECTION( '', ( -1.00000000000000, 0.000000000000000, 0.000000000000000 ) );
#173 = ORIENTED_EDGE( '', *, *, #195, .T. );
#174 = ORIENTED_EDGE( '', *, *, #210, .T. );
#175 = ORIENTED_EDGE( '', *, *, #212, .T. );
#176 = ORIENTED_EDGE( '', *, *, #204, .T. );
#177 = ORIENTED_EDGE( '', *, *, #200, .T. );
#178 = ORIENTED_EDGE( '', *, *, #213, .T. );
#179 = CARTESIAN_POINT( '', ( -32.0000000000000, 2.00000000000000, 0.000000000000000 ) );
#180 = DIRECTION( '', ( 0.000000000000000, 0.000000000000000, 1.00000000000000 ) );
#181 = DIRECTION( '', ( 1.00000000000000, 0.000000000000000, 0.000000000000000 ) );
#182 = ORIENTED_EDGE( '', *, *, #199, .T. );
#183 = ORIENTED_EDGE( '', *, *, #194, .F. );
#184 = CARTESIAN_POINT( '', ( -36.0000000000000, 12.1000000000382, -3.90000000000000 ) );
#185 = DIRECTION( '', ( -0.000000000000000, 1.00000000000000, 0.000000000000000 ) );
#186 = DIRECTION( '', ( -0.000000000000000, 0.000000000000000, -1.00000000000000 ) );
#187 = ORIENTED_EDGE( '', *, *, #213, .F. );
#188 = ORIENTED_EDGE( '', *, *, #203, .F. );
#189 = ORIENTED_EDGE( '', *, *, #207, .T. );
#190 = ORIENTED_EDGE( '', *, *, #196, .T. );
#191 = CARTESIAN_POINT( '', ( -40.0000000000000, 10.0000000000000, -7.80000000000000 ) );
#192 = DIRECTION( '', ( -1.00000000000000, 0.000000000000000, 0.000000000000000 ) );
#193 = DIRECTION( '', ( 0.000000000000000, 1.00000000000000, 0.000000000000000 ) );
#194 = EDGE_CURVE( '', #214, #214, #215, .T. );
#195 = EDGE_CURVE( '', #216, #217, #218, .T. );
#196 = EDGE_CURVE( '', #219, #216, #220, .T. );
#197 = EDGE_CURVE( '', #219, #221, #222, .T. );
#198 = EDGE_CURVE( '', #221, #217, #223, .T. );
#199 = EDGE_CURVE( '', #224, #224, #225, .T. );
#200 = EDGE_CURVE( '', #226, #227, #228, .T. );
#201 = EDGE_CURVE( '', #229, #226, #230, .T. );
#202 = EDGE_CURVE( '', #229, #231, #232, .T. );
#203 = EDGE_CURVE( '', #231, #227, #233, .T. );
#204 = EDGE_CURVE( '', #234, #226, #235, .T. );
#205 = EDGE_CURVE( '', #236, #234, #237, .T. );
#206 = EDGE_CURVE( '', #236, #229, #238, .T. );
#207 = EDGE_CURVE( '', #231, #219, #239, .T. );
#208 = EDGE_CURVE( '', #240, #236, #241, .T. );
#209 = EDGE_CURVE( '', #221, #240, #242, .T. );
#210 = EDGE_CURVE( '', #217, #243, #244, .T. );
#211 = EDGE_CURVE( '', #240, #243, #245, .T. );
#212 = EDGE_CURVE( '', #243, #234, #246, .T. );
#213 = EDGE_CURVE( '', #227, #216, #247, .T. );
#214 = VERTEX_POINT( '', #248 );
#215 = CIRCLE( '', #249, 2.10000000000000 );
#216 = VERTEX_POINT( '', #250 );
#217 = VERTEX_POINT( '', #251 );
#218 = LINE( '', #252, #253 );
#219 = VERTEX_POINT( '', #254 );
#220 = LINE( '', #255, #256 );
#221 = VERTEX_POINT( '', #257 );
#222 = LINE( '', #258, #259 );
#223 = LINE( '', #260, #261 );
#224 = VERTEX_POINT( '', #262 );
#225 = CIRCLE( '', #263, 2.10000000000000 );
#226 = VERTEX_POINT( '', #264 );
#227 = VERTEX_POINT( '', #265 );
#228 = LINE( '', #266, #267 );
#229 = VERTEX_POINT( '', #268 );
#230 = LINE( '', #269, #270 );
#231 = VERTEX_POINT( '', #271 );
#232 = LINE( '', #272, #273 );
#233 = LINE( '', #274, #275 );
#234 = VERTEX_POINT( '', #276 );
#235 = LINE( '', #277, #278 );
#236 = VERTEX_POINT( '', #279 );
#237 = LINE( '', #280, #281 );
#238 = LINE( '', #282, #283 );
#239 = LINE( '', #284, #285 );
#240 = VERTEX_POINT( '', #286 );
#241 = LINE( '', #287, #288 );
#242 = LINE( '', #289, #290 );
#243 = VERTEX_POINT( '', #291 );
#244 = LINE( '', #292, #293 );
#245 = LINE( '', #294, #295 );
#246 = LINE( '', #296, #297 );
#247 = LINE( '', #298, #299 );
#248 = CARTESIAN_POINT( '', ( -36.0000000000000, 2.00000000000000, -6.00000000000000 ) );
#249 = AXIS2_PLACEMENT_3D( '', #300, #301, #302 );
#250 = CARTESIAN_POINT( '', ( -40.0000000000000, 2.00000000000000, 0.000000000000000 ) );
#251 = CARTESIAN_POINT( '', ( -32.0000000000000, 2.00000000000000, 0.000000000000000 ) );
#252 = CARTESIAN_POINT( '', ( -40.0000000000000, 2.00000000000000, 0.000000000000000 ) );
#253 = VECTOR( '', #303, 1000.00000000000 );
#254 = CARTESIAN_POINT( '', ( -40.0000000000000, 2.00000000000000, -7.80000000000000 ) );
#255 = CARTESIAN_POINT( '', ( -40.0000000000000, 2.00000000000000, -7.80000000000000 ) );
#256 = VECTOR( '', #304, 1000.00000000000 );
#257 = CARTESIAN_POINT( '', ( -32.0000000000000, 2.00000000000000, -7.80000000000000 ) );
#258 = CARTESIAN_POINT( '', ( -40.0000000000000, 2.00000000000000, -7.80000000000000 ) );
#259 = VECTOR( '', #305, 1000.00000000000 );
#260 = CARTESIAN_POINT( '', ( -32.0000000000000, 2.00000000000000, -7.80000000000000 ) );
#261 = VECTOR( '', #306, 1000.00000000000 );
#262 = CARTESIAN_POINT( '', ( -36.0000000000000, 10.0000000000000, -1.80000000000000 ) );
#263 = AXIS2_PLACEMENT_3D( '', #307, #308, #309 );
#264 = CARTESIAN_POINT( '', ( -10.0000000000000, 10.0000000000000, 0.000000000000000 ) );
#265 = CARTESIAN_POINT( '', ( -40.0000000000000, 10.0000000000000, 0.000000000000000 ) );
#266 = CARTESIAN_POINT( '', ( -10.0000000000000, 10.0000000000000, 0.000000000000000 ) );
#267 = VECTOR( '', #310, 1000.00000000000 );
#268 = CARTESIAN_POINT( '', ( -10.0000000000000, 10.0000000000000, -7.80000000000000 ) );
#269 = CARTESIAN_POINT( '', ( -10.0000000000000, 10.0000000000000, -7.80000000000000 ) );
#270 = VECTOR( '', #311, 1000.00000000000 );
#271 = CARTESIAN_POINT( '', ( -40.0000000000000, 10.0000000000000, -7.80000000000000 ) );
#272 = CARTESIAN_POINT( '', ( -10.0000000000000, 10.0000000000000, -7.80000000000000 ) );
#273 = VECTOR( '', #312, 1000.00000000000 );
#274 = CARTESIAN_POINT( '', ( -40.0000000000000, 10.0000000000000, -7.80000000000000 ) );
#275 = VECTOR( '', #313, 1000.00000000000 );
#276 = CARTESIAN_POINT( '', ( -10.0000000000000, 5.00000000000000, 0.000000000000000 ) );
#277 = CARTESIAN_POINT( '', ( -10.0000000000000, 5.00000000000000, 0.000000000000000 ) );
#278 = VECTOR( '', #314, 1000.00000000000 );
#279 = CARTESIAN_POINT( '', ( -10.0000000000000, 5.00000000000000, -7.80000000000000 ) );
#280 = CARTESIAN_POINT( '', ( -10.0000000000000, 5.00000000000000, -7.80000000000000 ) );
#281 = VECTOR( '', #315, 1000.00000000000 );
#282 = CARTESIAN_POINT( '', ( -10.0000000000000, 5.00000000000000, -7.80000000000000 ) );
#283 = VECTOR( '', #316, 1000.00000000000 );
#284 = CARTESIAN_POINT( '', ( -40.0000000000000, 10.0000000000000, -7.80000000000000 ) );
#285 = VECTOR( '', #317, 1000.00000000000 );
#286 = CARTESIAN_POINT( '', ( -32.0000000000000, 5.00000000000000, -7.80000000000000 ) );
#287 = CARTESIAN_POINT( '', ( -32.0000000000000, 5.00000000000000, -7.80000000000000 ) );
#288 = VECTOR( '', #318, 1000.00000000000 );
#289 = CARTESIAN_POINT( '', ( -32.0000000000000, 2.00000000000000, -7.80000000000000 ) );
#290 = VECTOR( '', #319, 1000.00000000000 );
#291 = CARTESIAN_POINT( '', ( -32.0000000000000, 5.00000000000000, 0.000000000000000 ) );
#292 = CARTESIAN_POINT( '', ( -32.0000000000000, 2.00000000000000, 0.000000000000000 ) );
#293 = VECTOR( '', #320, 1000.00000000000 );
#294 = CARTESIAN_POINT( '', ( -32.0000000000000, 5.00000000000000, -7.80000000000000 ) );
#295 = VECTOR( '', #321, 1000.00000000000 );
#296 = CARTESIAN_POINT( '', ( -32.0000000000000, 5.00000000000000, 0.000000000000000 ) );
#297 = VECTOR( '', #322, 1000.00000000000 );
#298 = CARTESIAN_POINT( '', ( -40.0000000000000, 10.0000000000000, 0.000000000000000 ) );
#299 = VECTOR( '', #323, 1000.00000000000 );
#300 = CARTESIAN_POINT( '', ( -36.0000000000000, 2.00000000000000, -3.90000000000000 ) );
#301 = DIRECTION( '', ( 0.000000000000000, 1.00000000000000, 0.000000000000000 ) );
#302 = DIRECTION( '', ( 0.000000000000000, 0.000000000000000, -1.00000000000000 ) );
#303 = DIRECTION( '', ( 1.00000000000000, 0.000000000000000, 0.000000000000000 ) );
#304 = DIRECTION( '', ( 0.000000000000000, -0.000000000000000, 1.00000000000000 ) );
#305 = DIRECTION( '', ( 1.00000000000000, 0.000000000000000, 0.000000000000000 ) );
#306 = DIRECTION( '', ( 0.000000000000000, -0.000000000000000, 1.00000000000000 ) );
#307 = CARTESIAN_POINT( '', ( -36.0000000000000, 10.0000000000000, -3.90000000000000 ) );
#308 = DIRECTION( '', ( 0.000000000000000, 1.00000000000000, 0.000000000000000 ) );
#309 = DIRECTION( '', ( 0.000000000000000, -0.000000000000000, 1.00000000000000 ) );
#310 = DIRECTION( '', ( -1.00000000000000, 0.000000000000000, 0.000000000000000 ) );
#311 = DIRECTION( '', ( 0.000000000000000, -0.000000000000000, 1.00000000000000 ) );
#312 = DIRECTION( '', ( -1.00000000000000, 0.000000000000000, 0.000000000000000 ) );
#313 = DIRECTION( '', ( 0.000000000000000, -0.000000000000000, 1.00000000000000 ) );
#314 = DIRECTION( '', ( 0.000000000000000, 1.00000000000000, 0.000000000000000 ) );
#315 = DIRECTION( '', ( 0.000000000000000, -0.000000000000000, 1.00000000000000 ) );
#316 = DIRECTION( '', ( 0.000000000000000, 1.00000000000000, 0.000000000000000 ) );
#317 = DIRECTION( '', ( 0.000000000000000, -1.00000000000000, 0.000000000000000 ) );
#318 = DIRECTION( '', ( 1.00000000000000, 0.000000000000000, 0.000000000000000 ) );
#319 = DIRECTION( '', ( 0.000000000000000, 1.00000000000000, 0.000000000000000 ) );
#320 = DIRECTION( '', ( 0.000000000000000, 1.00000000000000, 0.000000000000000 ) );
#321 = DIRECTION( '', ( 0.000000000000000, -0.000000000000000, 1.00000000000000 ) );
#322 = DIRECTION( '', ( 1.00000000000000, 0.000000000000000, 0.000000000000000 ) );
#323 = DIRECTION( '', ( 0.000000000000000, -1.00000000000000, 0.000000000000000 ) );
ENDSEC;
END-ISO-10303-21;
