ISO-10303-21;
HEADER;
FILE_DESCRIPTION( ( 'STEP AP203' ), '1' );
FILE_NAME( ' ', '  ', ( '  ' ), ( '  ' ), 'PSStep 10.1', '  ', '  ' );
FILE_SCHEMA( ( 'CONFIG_CONTROL_DESIGN' ) );
ENDSEC;
DATA;
#1 = DESIGN_CONTEXT( '', #27, 'design' );
#2 = APPLICATION_PROTOCOL_DEFINITION( 'INTERNATIONAL STANDARD', 'config_control_design', 1994, #27 );
#3 = PRODUCT_CATEGORY_RELATIONSHIP( 'NONE', 'NONE', #28, #29 );
#4 = DATE_AND_TIME( #30, #31 );
#5 = DATE_TIME_ROLE( 'creation_date' );
#6 = DATE_TIME_ROLE( 'classification_date' );
#7 = PERSON_AND_ORGANIZATION_ROLE( 'creator' );
#8 = PERSON_AND_ORGANIZATION_ROLE( 'design_supplier' );
#9 = PERSON_AND_ORGANIZATION_ROLE( 'classification_officer' );
#10 = PERSON_AND_ORGANIZATION_ROLE( 'design_owner' );
#11 = APPROVAL_PERSON_ORGANIZATION( #32, #33, #34 );
#12 = APPROVAL_DATE_TIME( #4, #33 );
#13 = CC_DESIGN_APPROVAL( #33, ( #35, #36, #37 ) );
#14 = CC_DESIGN_DATE_AND_TIME_ASSIGNMENT( #4, #5, ( #37 ) );
#15 = CC_DESIGN_DATE_AND_TIME_ASSIGNMENT( #4, #6, ( #35 ) );
#16 = CC_DESIGN_PERSON_AND_ORGANIZATION_ASSIGNMENT( #32, #10, ( #38 ) );
#17 = CC_DESIGN_PERSON_AND_ORGANIZATION_ASSIGNMENT( #32, #7, ( #37 ) );
#18 = CC_DESIGN_PERSON_AND_ORGANIZATION_ASSIGNMENT( #32, #7, ( #36 ) );
#19 = CC_DESIGN_PERSON_AND_ORGANIZATION_ASSIGNMENT( #32, #8, ( #36 ) );
#20 = CC_DESIGN_SECURITY_CLASSIFICATION( #35, ( #36 ) );
#21 = CC_DESIGN_PERSON_AND_ORGANIZATION_ASSIGNMENT( #32, #9, ( #35 ) );
#22 = SHAPE_DEFINITION_REPRESENTATION( #39, #40 );
#23 =  ( GEOMETRIC_REPRESENTATION_CONTEXT( 3 )GLOBAL_UNCERTAINTY_ASSIGNED_CONTEXT( ( #43 ) )GLOBAL_UNIT_ASSIGNED_CONTEXT( ( #45, #46, #47 ) )REPRESENTATION_CONTEXT( 'NONE', 'WORKSPACE' ) );
#27 = APPLICATION_CONTEXT( 'CONFIGURATION CONTROLLED 3D DESIGNS OF MECHANICAL PARTS AND ASSEMBLIES' );
#28 = PRODUCT_CATEGORY( 'part', 'NONE' );
#29 = PRODUCT_RELATED_PRODUCT_CATEGORY( 'detail', ' ', ( #38 ) );
#30 = CALENDAR_DATE( 2025, 27, 0 );
#31 = LOCAL_TIME( 16, 37, 45.0000000000000, #49 );
#32 = PERSON_AND_ORGANIZATION( #50, #51 );
#33 = APPROVAL( #52, 'SOLID MODEL' );
#34 = APPROVAL_ROLE( 'APPROVED' );
#35 = SECURITY_CLASSIFICATION( '', '', #53 );
#36 = PRODUCT_DEFINITION_FORMATION_WITH_SPECIFIED_SOURCE( ' ', 'NONE', #38, .NOT_KNOWN. );
#37 = PRODUCT_DEFINITION( 'NONE', 'NONE', #36, #1 );
#38 = PRODUCT( '1', '1', 'PART-1-DESC', ( #54 ) );
#39 = PRODUCT_DEFINITION_SHAPE( 'NONE', 'NONE', #37 );
#40 = ADVANCED_BREP_SHAPE_REPRESENTATION( '1', ( #55, #56 ), #23 );
#43 = UNCERTAINTY_MEASURE_WITH_UNIT( LENGTH_MEASURE( 0.00100000000000000 ), #45, '', '' );
#45 =  ( CONVERSION_BASED_UNIT( 'MILLIMETRE', #59 )LENGTH_UNIT(  )NAMED_UNIT( #62 ) );
#46 =  ( NAMED_UNIT( #64 )PLANE_ANGLE_UNIT(  )SI_UNIT( $, .RADIAN. ) );
#47 =  ( NAMED_UNIT( #64 )SI_UNIT( $, .STERADIAN. )SOLID_ANGLE_UNIT(  ) );
#49 = COORDINATED_UNIVERSAL_TIME_OFFSET( 1, 0, .AHEAD. );
#50 = PERSON( '', 'UNSPECIFIED', $, $, $, $ );
#51 = ORGANIZATION( 'UNSPECIFIED', 'UNSPECIFIED', 'UNSPECIFIED' );
#52 = APPROVAL_STATUS( 'approved' );
#53 = SECURITY_CLASSIFICATION_LEVEL( 'unclassified' );
#54 = MECHANICAL_CONTEXT( '', #27, 'mechanical' );
#55 = MANIFOLD_SOLID_BREP( '1', #70 );
#56 = AXIS2_PLACEMENT_3D( '', #71, #72, #73 );
#59 = LENGTH_MEASURE_WITH_UNIT( LENGTH_MEASURE( 1.00000000000000 ), #74 );
#62 = DIMENSIONAL_EXPONENTS( 1.00000000000000, 0.000000000000000, 0.000000000000000, 0.000000000000000, 0.000000000000000, 0.000000000000000, 0.000000000000000 );
#64 = DIMENSIONAL_EXPONENTS( 0.000000000000000, 0.000000000000000, 0.000000000000000, 0.000000000000000, 0.000000000000000, 0.000000000000000, 0.000000000000000 );
#70 = CLOSED_SHELL( '', ( #75, #76, #77, #78, #79, #80, #81 ) );
#71 = CARTESIAN_POINT( '', ( 0.000000000000000, 0.000000000000000, 0.000000000000000 ) );
#72 = DIRECTION( '', ( 0.000000000000000, 0.000000000000000, 1.00000000000000 ) );
#73 = DIRECTION( '', ( 1.00000000000000, 0.000000000000000, 0.000000000000000 ) );
#74 =  ( LENGTH_UNIT(  )NAMED_UNIT( #62 )SI_UNIT( .MILLI., .METRE. ) );
#75 = ADVANCED_FACE( '', ( #83 ), #84, .F. );
#76 = ADVANCED_FACE( '', ( #85 ), #86, .T. );
#77 = ADVANCED_FACE( '', ( #87, #88 ), #89, .F. );
#78 = ADVANCED_FACE( '', ( #90 ), #91, .F. );
#79 = ADVANCED_FACE( '', ( #92, #93 ), #94, .F. );
#80 = ADVANCED_FACE( '', ( #95 ), #96, .F. );
#81 = ADVANCED_FACE( '', ( #97, #98 ), #99, .F. );
#83 = FACE_OUTER_BOUND( '', #100, .T. );
#84 = PLANE( '', #101 );
#85 = FACE_OUTER_BOUND( '', #102, .T. );
#86 = PLANE( '', #103 );
#87 = FACE_BOUND( '', #104, .T. );
#88 = FACE_OUTER_BOUND( '', #105, .T. );
#89 = PLANE( '', #106 );
#90 = FACE_OUTER_BOUND( '', #107, .T. );
#91 = PLANE( '', #108 );
#92 = FACE_BOUND( '', #109, .T. );
#93 = FACE_OUTER_BOUND( '', #110, .T. );
#94 = PLANE( '', #111 );
#95 = FACE_OUTER_BOUND( '', #112, .T. );
#96 = PLANE( '', #113 );
#97 = FACE_OUTER_BOUND( '', #114, .T. );
#98 = FACE_OUTER_BOUND( '', #115, .T. );
#99 = CYLINDRICAL_SURFACE( '', #116, 2.10000000000000 );
#100 = EDGE_LOOP( '', ( #117, #118, #119, #120 ) );
#101 = AXIS2_PLACEMENT_3D( '', #121, #122, #123 );
#102 = EDGE_LOOP( '', ( #124, #125, #126, #127 ) );
#103 = AXIS2_PLACEMENT_3D( '', #128, #129, #130 );
#104 = EDGE_LOOP( '', ( #131 ) );
#105 = EDGE_LOOP( '', ( #132, #133, #134, #135 ) );
#106 = AXIS2_PLACEMENT_3D( '', #136, #137, #138 );
#107 = EDGE_LOOP( '', ( #139, #140, #141, #142 ) );
#108 = AXIS2_PLACEMENT_3D( '', #143, #144, #145 );
#109 = EDGE_LOOP( '', ( #146 ) );
#110 = EDGE_LOOP( '', ( #147, #148, #149, #150 ) );
#111 = AXIS2_PLACEMENT_3D( '', #151, #152, #153 );
#112 = EDGE_LOOP( '', ( #154, #155, #156, #157 ) );
#113 = AXIS2_PLACEMENT_3D( '', #158, #159, #160 );
#114 = EDGE_LOOP( '', ( #161 ) );
#115 = EDGE_LOOP( '', ( #162 ) );
#116 = AXIS2_PLACEMENT_3D( '', #163, #164, #165 );
#117 = ORIENTED_EDGE( '', *, *, #166, .T. );
#118 = ORIENTED_EDGE( '', *, *, #167, .F. );
#119 = ORIENTED_EDGE( '', *, *, #168, .F. );
#120 = ORIENTED_EDGE( '', *, *, #169, .T. );
#121 = CARTESIAN_POINT( '', ( -40.0000000000000, 4.00000000000000, -5.80000000000000 ) );
#122 = DIRECTION( '', ( 1.00000000000000, 0.000000000000000, 0.000000000000000 ) );
#123 = DIRECTION( '', ( 0.000000000000000, -1.00000000000000, 0.000000000000000 ) );
#124 = ORIENTED_EDGE( '', *, *, #168, .T. );
#125 = ORIENTED_EDGE( '', *, *, #170, .T. );
#126 = ORIENTED_EDGE( '', *, *, #171, .T. );
#127 = ORIENTED_EDGE( '', *, *, #172, .T. );
#128 = CARTESIAN_POINT( '', ( -40.0000000000000, 10.0000000000000, -5.80000000000000 ) );
#129 = DIRECTION( '', ( 0.000000000000000, 0.000000000000000, -1.00000000000000 ) );
#130 = DIRECTION( '', ( 0.000000000000000, 1.00000000000000, 0.000000000000000 ) );
#131 = ORIENTED_EDGE( '', *, *, #173, .T. );
#132 = ORIENTED_EDGE( '', *, *, #174, .T. );
#133 = ORIENTED_EDGE( '', *, *, #175, .F. );
#134 = ORIENTED_EDGE( '', *, *, #170, .F. );
#135 = ORIENTED_EDGE( '', *, *, #167, .T. );
#136 = CARTESIAN_POINT( '', ( -40.0000000000000, 10.0000000000000, -5.80000000000000 ) );
#137 = DIRECTION( '', ( 0.000000000000000, -1.00000000000000, -0.000000000000000 ) );
#138 = DIRECTION( '', ( -1.00000000000000, 0.000000000000000, -0.000000000000000 ) );
#139 = ORIENTED_EDGE( '', *, *, #176, .T. );
#140 = ORIENTED_EDGE( '', *, *, #177, .F. );
#141 = ORIENTED_EDGE( '', *, *, #171, .F. );
#142 = ORIENTED_EDGE( '', *, *, #175, .T. );
#143 = CARTESIAN_POINT( '', ( -10.0000000000000, 10.0000000000000, -5.80000000000000 ) );
#144 = DIRECTION( '', ( -1.00000000000000, 0.000000000000000, 0.000000000000000 ) );
#145 = DIRECTION( '', ( 0.000000000000000, 1.00000000000000, 0.000000000000000 ) );
#146 = ORIENTED_EDGE( '', *, *, #178, .T. );
#147 = ORIENTED_EDGE( '', *, *, #179, .T. );
#148 = ORIENTED_EDGE( '', *, *, #169, .F. );
#149 = ORIENTED_EDGE( '', *, *, #172, .F. );
#150 = ORIENTED_EDGE( '', *, *, #177, .T. );
#151 = CARTESIAN_POINT( '', ( -10.0000000000000, 4.00000000000000, -5.80000000000000 ) );
#152 = DIRECTION( '', ( -0.000000000000000, 1.00000000000000, 0.000000000000000 ) );
#153 = DIRECTION( '', ( 1.00000000000000, 0.000000000000000, 0.000000000000000 ) );
#154 = ORIENTED_EDGE( '', *, *, #166, .F. );
#155 = ORIENTED_EDGE( '', *, *, #179, .F. );
#156 = ORIENTED_EDGE( '', *, *, #176, .F. );
#157 = ORIENTED_EDGE( '', *, *, #174, .F. );
#158 = CARTESIAN_POINT( '', ( -40.0000000000000, 10.0000000000000, 0.000000000000000 ) );
#159 = DIRECTION( '', ( 0.000000000000000, 0.000000000000000, -1.00000000000000 ) );
#160 = DIRECTION( '', ( 0.000000000000000, 1.00000000000000, 0.000000000000000 ) );
#161 = ORIENTED_EDGE( '', *, *, #178, .F. );
#162 = ORIENTED_EDGE( '', *, *, #173, .F. );
#163 = CARTESIAN_POINT( '', ( -36.0000000000000, 12.1000000000855, -2.90000000000000 ) );
#164 = DIRECTION( '', ( -0.000000000000000, 1.00000000000000, -0.000000000000000 ) );
#165 = DIRECTION( '', ( 0.000000000000000, 0.000000000000000, -1.00000000000000 ) );
#166 = EDGE_CURVE( '', #180, #181, #182, .T. );
#167 = EDGE_CURVE( '', #183, #181, #184, .T. );
#168 = EDGE_CURVE( '', #185, #183, #186, .T. );
#169 = EDGE_CURVE( '', #185, #180, #187, .T. );
#170 = EDGE_CURVE( '', #183, #188, #189, .T. );
#171 = EDGE_CURVE( '', #188, #190, #191, .T. );
#172 = EDGE_CURVE( '', #190, #185, #192, .T. );
#173 = EDGE_CURVE( '', #193, #193, #194, .T. );
#174 = EDGE_CURVE( '', #181, #195, #196, .T. );
#175 = EDGE_CURVE( '', #188, #195, #197, .T. );
#176 = EDGE_CURVE( '', #195, #198, #199, .T. );
#177 = EDGE_CURVE( '', #190, #198, #200, .T. );
#178 = EDGE_CURVE( '', #201, #201, #202, .T. );
#179 = EDGE_CURVE( '', #198, #180, #203, .T. );
#180 = VERTEX_POINT( '', #204 );
#181 = VERTEX_POINT( '', #205 );
#182 = LINE( '', #206, #207 );
#183 = VERTEX_POINT( '', #208 );
#184 = LINE( '', #209, #210 );
#185 = VERTEX_POINT( '', #211 );
#186 = LINE( '', #212, #213 );
#187 = LINE( '', #214, #215 );
#188 = VERTEX_POINT( '', #216 );
#189 = LINE( '', #217, #218 );
#190 = VERTEX_POINT( '', #219 );
#191 = LINE( '', #220, #221 );
#192 = LINE( '', #222, #223 );
#193 = VERTEX_POINT( '', #224 );
#194 = CIRCLE( '', #225, 2.10000000000000 );
#195 = VERTEX_POINT( '', #226 );
#196 = LINE( '', #227, #228 );
#197 = LINE( '', #229, #230 );
#198 = VERTEX_POINT( '', #231 );
#199 = LINE( '', #232, #233 );
#200 = LINE( '', #234, #235 );
#201 = VERTEX_POINT( '', #236 );
#202 = CIRCLE( '', #237, 2.10000000000000 );
#203 = LINE( '', #238, #239 );
#204 = CARTESIAN_POINT( '', ( -40.0000000000000, 4.00000000000000, 0.000000000000000 ) );
#205 = CARTESIAN_POINT( '', ( -40.0000000000000, 10.0000000000000, 0.000000000000000 ) );
#206 = CARTESIAN_POINT( '', ( -40.0000000000000, 4.00000000000000, 0.000000000000000 ) );
#207 = VECTOR( '', #240, 1000.00000000000 );
#208 = CARTESIAN_POINT( '', ( -40.0000000000000, 10.0000000000000, -5.80000000000000 ) );
#209 = CARTESIAN_POINT( '', ( -40.0000000000000, 10.0000000000000, -5.80000000000000 ) );
#210 = VECTOR( '', #241, 1000.00000000000 );
#211 = CARTESIAN_POINT( '', ( -40.0000000000000, 4.00000000000000, -5.80000000000000 ) );
#212 = CARTESIAN_POINT( '', ( -40.0000000000000, 4.00000000000000, -5.80000000000000 ) );
#213 = VECTOR( '', #242, 1000.00000000000 );
#214 = CARTESIAN_POINT( '', ( -40.0000000000000, 4.00000000000000, -5.80000000000000 ) );
#215 = VECTOR( '', #243, 1000.00000000000 );
#216 = CARTESIAN_POINT( '', ( -10.0000000000000, 10.0000000000000, -5.80000000000000 ) );
#217 = CARTESIAN_POINT( '', ( -40.0000000000000, 10.0000000000000, -5.80000000000000 ) );
#218 = VECTOR( '', #244, 1000.00000000000 );
#219 = CARTESIAN_POINT( '', ( -10.0000000000000, 4.00000000000000, -5.80000000000000 ) );
#220 = CARTESIAN_POINT( '', ( -10.0000000000000, 10.0000000000000, -5.80000000000000 ) );
#221 = VECTOR( '', #245, 1000.00000000000 );
#222 = CARTESIAN_POINT( '', ( -10.0000000000000, 4.00000000000000, -5.80000000000000 ) );
#223 = VECTOR( '', #246, 1000.00000000000 );
#224 = CARTESIAN_POINT( '', ( -36.0000000000000, 10.0000000000000, -5.00000000000000 ) );
#225 = AXIS2_PLACEMENT_3D( '', #247, #248, #249 );
#226 = CARTESIAN_POINT( '', ( -10.0000000000000, 10.0000000000000, 0.000000000000000 ) );
#227 = CARTESIAN_POINT( '', ( -40.0000000000000, 10.0000000000000, 0.000000000000000 ) );
#228 = VECTOR( '', #250, 1000.00000000000 );
#229 = CARTESIAN_POINT( '', ( -10.0000000000000, 10.0000000000000, -5.80000000000000 ) );
#230 = VECTOR( '', #251, 1000.00000000000 );
#231 = CARTESIAN_POINT( '', ( -10.0000000000000, 4.00000000000000, 0.000000000000000 ) );
#232 = CARTESIAN_POINT( '', ( -10.0000000000000, 10.0000000000000, 0.000000000000000 ) );
#233 = VECTOR( '', #252, 1000.00000000000 );
#234 = CARTESIAN_POINT( '', ( -10.0000000000000, 4.00000000000000, -5.80000000000000 ) );
#235 = VECTOR( '', #253, 1000.00000000000 );
#236 = CARTESIAN_POINT( '', ( -36.0000000000000, 4.00000000000000, -5.00000000000000 ) );
#237 = AXIS2_PLACEMENT_3D( '', #254, #255, #256 );
#238 = CARTESIAN_POINT( '', ( -10.0000000000000, 4.00000000000000, 0.000000000000000 ) );
#239 = VECTOR( '', #257, 1000.00000000000 );
#240 = DIRECTION( '', ( 0.000000000000000, 1.00000000000000, 0.000000000000000 ) );
#241 = DIRECTION( '', ( -0.000000000000000, -0.000000000000000, 1.00000000000000 ) );
#242 = DIRECTION( '', ( 0.000000000000000, 1.00000000000000, 0.000000000000000 ) );
#243 = DIRECTION( '', ( -0.000000000000000, -0.000000000000000, 1.00000000000000 ) );
#244 = DIRECTION( '', ( 1.00000000000000, 0.000000000000000, 0.000000000000000 ) );
#245 = DIRECTION( '', ( 0.000000000000000, -1.00000000000000, 0.000000000000000 ) );
#246 = DIRECTION( '', ( -1.00000000000000, 0.000000000000000, 0.000000000000000 ) );
#247 = CARTESIAN_POINT( '', ( -36.0000000000000, 10.0000000000000, -2.90000000000000 ) );
#248 = DIRECTION( '', ( 0.000000000000000, -1.00000000000000, 0.000000000000000 ) );
#249 = DIRECTION( '', ( 0.000000000000000, 0.000000000000000, -1.00000000000000 ) );
#250 = DIRECTION( '', ( 1.00000000000000, 0.000000000000000, 0.000000000000000 ) );
#251 = DIRECTION( '', ( -0.000000000000000, -0.000000000000000, 1.00000000000000 ) );
#252 = DIRECTION( '', ( 0.000000000000000, -1.00000000000000, 0.000000000000000 ) );
#253 = DIRECTION( '', ( -0.000000000000000, -0.000000000000000, 1.00000000000000 ) );
#254 = CARTESIAN_POINT( '', ( -36.0000000000000, 4.00000000000000, -2.90000000000000 ) );
#255 = DIRECTION( '', ( -0.000000000000000, 1.00000000000000, -0.000000000000000 ) );
#256 = DIRECTION( '', ( 0.000000000000000, -0.000000000000000, -1.00000000000000 ) );
#257 = DIRECTION( '', ( -1.00000000000000, 0.000000000000000, 0.000000000000000 ) );
ENDSEC;
END-ISO-10303-21;
