ISO-10303-21;
HEADER;
/* Generated by software containing ST-Developer
 * from STEP Tools, Inc. (www.steptools.com) 
 */

FILE_DESCRIPTION(
/* description */ ('',
'CAx-IF Rec.Pracs.---Representation and Presentation of Product Manufa
cturing Information (PMI)---4.0---2014-10-13'),
/* implementation_level */ '2;1');

FILE_NAME(
/* name */ 'Arbre_adaptation v5 FINALE.step',
/* time_stamp */ '2025-01-21T14:54:46+01:00',
/* author */ (''),
/* organization */ (''),
/* preprocessor_version */ 'ST-DEVELOPER v20',
/* originating_system */ 'Autodesk Translation Framework v13.20.0.188',

/* authorisation */ '');

FILE_SCHEMA (('AP242_MANAGED_MODEL_BASED_3D_ENGINEERING_MIM_LF { 1 0 10303 442 1 1 4 }'));
ENDSEC;

DATA;
#10=MECHANICAL_DESIGN_GEOMETRIC_PRESENTATION_REPRESENTATION('',(#13,#14),
#531);
#11=SHAPE_REPRESENTATION_RELATIONSHIP('SRR','None',#537,#12);
#12=ADVANCED_BREP_SHAPE_REPRESENTATION('',(#15,#16),#530);
#13=STYLED_ITEM('',(#546),#15);
#14=STYLED_ITEM('',(#546),#16);
#15=MANIFOLD_SOLID_BREP('Corps1',#306);
#16=MANIFOLD_SOLID_BREP('Corps3',#307);
#17=LINE('',#453,#42);
#18=LINE('',#457,#43);
#19=LINE('',#465,#44);
#20=LINE('',#466,#45);
#21=LINE('',#473,#46);
#22=LINE('',#474,#47);
#23=LINE('',#479,#48);
#24=LINE('',#481,#49);
#25=LINE('',#483,#50);
#26=LINE('',#486,#51);
#27=LINE('',#488,#52);
#28=LINE('',#489,#53);
#29=LINE('',#491,#54);
#30=LINE('',#495,#55);
#31=LINE('',#499,#56);
#32=LINE('',#501,#57);
#33=LINE('',#503,#58);
#34=LINE('',#510,#59);
#35=LINE('',#511,#60);
#36=LINE('',#512,#61);
#37=LINE('',#515,#62);
#38=LINE('',#516,#63);
#39=LINE('',#519,#64);
#40=LINE('',#520,#65);
#41=LINE('',#523,#66);
#42=VECTOR('',#365,0.0175);
#43=VECTOR('',#368,0.01);
#44=VECTOR('',#375,0.01);
#45=VECTOR('',#376,0.01);
#46=VECTOR('',#383,0.01);
#47=VECTOR('',#384,0.01);
#48=VECTOR('',#389,0.01);
#49=VECTOR('',#390,0.01);
#50=VECTOR('',#391,0.01);
#51=VECTOR('',#396,0.01);
#52=VECTOR('',#399,0.01);
#53=VECTOR('',#400,0.01);
#54=VECTOR('',#403,0.01);
#55=VECTOR('',#410,0.0045);
#56=VECTOR('',#413,0.01);
#57=VECTOR('',#414,0.01);
#58=VECTOR('',#415,0.01);
#59=VECTOR('',#422,0.01);
#60=VECTOR('',#423,0.01);
#61=VECTOR('',#424,0.01);
#62=VECTOR('',#427,0.01);
#63=VECTOR('',#428,0.01);
#64=VECTOR('',#431,0.01);
#65=VECTOR('',#432,0.01);
#66=VECTOR('',#435,0.0045);
#67=CYLINDRICAL_SURFACE('',#324,0.0175);
#68=CYLINDRICAL_SURFACE('',#331,0.01265);
#69=CYLINDRICAL_SURFACE('',#336,0.0126936532330628);
#70=CYLINDRICAL_SURFACE('',#340,0.0126551971436252);
#71=CYLINDRICAL_SURFACE('',#341,0.0045);
#72=CYLINDRICAL_SURFACE('',#348,0.0045);
#73=CYLINDRICAL_SURFACE('',#352,0.009225);
#74=FACE_BOUND('',#98,.T.);
#75=FACE_BOUND('',#101,.T.);
#76=FACE_BOUND('',#104,.T.);
#77=FACE_BOUND('',#112,.T.);
#78=FACE_BOUND('',#118,.T.);
#79=FACE_OUTER_BOUND('',#97,.T.);
#80=FACE_OUTER_BOUND('',#99,.T.);
#81=FACE_OUTER_BOUND('',#100,.T.);
#82=FACE_OUTER_BOUND('',#102,.T.);
#83=FACE_OUTER_BOUND('',#103,.T.);
#84=FACE_OUTER_BOUND('',#105,.T.);
#85=FACE_OUTER_BOUND('',#106,.T.);
#86=FACE_OUTER_BOUND('',#107,.T.);
#87=FACE_OUTER_BOUND('',#108,.T.);
#88=FACE_OUTER_BOUND('',#109,.T.);
#89=FACE_OUTER_BOUND('',#110,.T.);
#90=FACE_OUTER_BOUND('',#111,.T.);
#91=FACE_OUTER_BOUND('',#113,.T.);
#92=FACE_OUTER_BOUND('',#114,.T.);
#93=FACE_OUTER_BOUND('',#115,.T.);
#94=FACE_OUTER_BOUND('',#116,.T.);
#95=FACE_OUTER_BOUND('',#117,.T.);
#96=FACE_OUTER_BOUND('',#119,.T.);
#97=EDGE_LOOP('',(#199));
#98=EDGE_LOOP('',(#200));
#99=EDGE_LOOP('',(#201,#202,#203,#204));
#100=EDGE_LOOP('',(#205,#206,#207,#208,#209,#210));
#101=EDGE_LOOP('',(#211));
#102=EDGE_LOOP('',(#212,#213,#214,#215));
#103=EDGE_LOOP('',(#216));
#104=EDGE_LOOP('',(#217,#218,#219,#220,#221,#222));
#105=EDGE_LOOP('',(#223,#224,#225,#226));
#106=EDGE_LOOP('',(#227,#228,#229,#230));
#107=EDGE_LOOP('',(#231,#232,#233,#234));
#108=EDGE_LOOP('',(#235,#236,#237,#238));
#109=EDGE_LOOP('',(#239,#240,#241,#242));
#110=EDGE_LOOP('',(#243,#244,#245,#246));
#111=EDGE_LOOP('',(#247,#248,#249,#250));
#112=EDGE_LOOP('',(#251));
#113=EDGE_LOOP('',(#252,#253,#254,#255));
#114=EDGE_LOOP('',(#256,#257,#258,#259));
#115=EDGE_LOOP('',(#260,#261,#262,#263));
#116=EDGE_LOOP('',(#264,#265,#266,#267));
#117=EDGE_LOOP('',(#268,#269,#270,#271));
#118=EDGE_LOOP('',(#272));
#119=EDGE_LOOP('',(#273,#274,#275,#276));
#120=CIRCLE('',#322,0.0175);
#121=CIRCLE('',#323,0.0045);
#122=CIRCLE('',#325,0.0175);
#123=CIRCLE('',#327,0.01265);
#124=CIRCLE('',#328,0.0126936532330628);
#125=CIRCLE('',#329,0.0126551971436252);
#126=CIRCLE('',#330,0.0045);
#127=CIRCLE('',#332,0.01265);
#128=CIRCLE('',#334,0.0126936532330628);
#129=CIRCLE('',#335,0.0126551971436252);
#130=CIRCLE('',#343,0.009225);
#131=CIRCLE('',#344,0.0045);
#132=CIRCLE('',#349,0.0045);
#133=CIRCLE('',#351,0.009225);
#134=VERTEX_POINT('',#446);
#135=VERTEX_POINT('',#448);
#136=VERTEX_POINT('',#451);
#137=VERTEX_POINT('',#455);
#138=VERTEX_POINT('',#456);
#139=VERTEX_POINT('',#458);
#140=VERTEX_POINT('',#460);
#141=VERTEX_POINT('',#462);
#142=VERTEX_POINT('',#464);
#143=VERTEX_POINT('',#467);
#144=VERTEX_POINT('',#470);
#145=VERTEX_POINT('',#471);
#146=VERTEX_POINT('',#476);
#147=VERTEX_POINT('',#478);
#148=VERTEX_POINT('',#480);
#149=VERTEX_POINT('',#482);
#150=VERTEX_POINT('',#497);
#151=VERTEX_POINT('',#498);
#152=VERTEX_POINT('',#500);
#153=VERTEX_POINT('',#502);
#154=VERTEX_POINT('',#505);
#155=VERTEX_POINT('',#508);
#156=VERTEX_POINT('',#509);
#157=VERTEX_POINT('',#514);
#158=VERTEX_POINT('',#518);
#159=VERTEX_POINT('',#522);
#160=EDGE_CURVE('',#134,#134,#120,.T.);
#161=EDGE_CURVE('',#135,#135,#121,.T.);
#162=EDGE_CURVE('',#136,#136,#122,.T.);
#163=EDGE_CURVE('',#136,#134,#17,.T.);
#164=EDGE_CURVE('',#137,#138,#18,.T.);
#165=EDGE_CURVE('',#139,#138,#123,.T.);
#166=EDGE_CURVE('',#140,#139,#124,.T.);
#167=EDGE_CURVE('',#140,#141,#125,.T.);
#168=EDGE_CURVE('',#141,#142,#19,.T.);
#169=EDGE_CURVE('',#142,#137,#20,.T.);
#170=EDGE_CURVE('',#143,#143,#126,.T.);
#171=EDGE_CURVE('',#144,#145,#127,.T.);
#172=EDGE_CURVE('',#145,#139,#21,.T.);
#173=EDGE_CURVE('',#138,#144,#22,.T.);
#174=EDGE_CURVE('',#146,#145,#128,.T.);
#175=EDGE_CURVE('',#147,#144,#23,.T.);
#176=EDGE_CURVE('',#148,#147,#24,.T.);
#177=EDGE_CURVE('',#149,#148,#25,.T.);
#178=EDGE_CURVE('',#149,#146,#129,.T.);
#179=EDGE_CURVE('',#146,#140,#26,.T.);
#180=EDGE_CURVE('',#148,#142,#27,.T.);
#181=EDGE_CURVE('',#149,#141,#28,.T.);
#182=EDGE_CURVE('',#147,#137,#29,.T.);
#183=EDGE_CURVE('',#135,#143,#30,.T.);
#184=EDGE_CURVE('',#150,#151,#31,.T.);
#185=EDGE_CURVE('',#151,#152,#32,.T.);
#186=EDGE_CURVE('',#152,#153,#33,.T.);
#187=EDGE_CURVE('',#153,#150,#130,.T.);
#188=EDGE_CURVE('',#154,#154,#131,.T.);
#189=EDGE_CURVE('',#155,#156,#34,.T.);
#190=EDGE_CURVE('',#153,#155,#35,.T.);
#191=EDGE_CURVE('',#152,#156,#36,.T.);
#192=EDGE_CURVE('',#156,#157,#37,.T.);
#193=EDGE_CURVE('',#151,#157,#38,.T.);
#194=EDGE_CURVE('',#157,#158,#39,.T.);
#195=EDGE_CURVE('',#158,#150,#40,.T.);
#196=EDGE_CURVE('',#154,#159,#41,.T.);
#197=EDGE_CURVE('',#159,#159,#132,.T.);
#198=EDGE_CURVE('',#158,#155,#133,.T.);
#199=ORIENTED_EDGE('',*,*,#160,.F.);
#200=ORIENTED_EDGE('',*,*,#161,.T.);
#201=ORIENTED_EDGE('',*,*,#162,.T.);
#202=ORIENTED_EDGE('',*,*,#163,.T.);
#203=ORIENTED_EDGE('',*,*,#160,.T.);
#204=ORIENTED_EDGE('',*,*,#163,.F.);
#205=ORIENTED_EDGE('',*,*,#164,.T.);
#206=ORIENTED_EDGE('',*,*,#165,.F.);
#207=ORIENTED_EDGE('',*,*,#166,.F.);
#208=ORIENTED_EDGE('',*,*,#167,.T.);
#209=ORIENTED_EDGE('',*,*,#168,.T.);
#210=ORIENTED_EDGE('',*,*,#169,.T.);
#211=ORIENTED_EDGE('',*,*,#170,.T.);
#212=ORIENTED_EDGE('',*,*,#171,.T.);
#213=ORIENTED_EDGE('',*,*,#172,.T.);
#214=ORIENTED_EDGE('',*,*,#165,.T.);
#215=ORIENTED_EDGE('',*,*,#173,.T.);
#216=ORIENTED_EDGE('',*,*,#162,.F.);
#217=ORIENTED_EDGE('',*,*,#174,.T.);
#218=ORIENTED_EDGE('',*,*,#171,.F.);
#219=ORIENTED_EDGE('',*,*,#175,.F.);
#220=ORIENTED_EDGE('',*,*,#176,.F.);
#221=ORIENTED_EDGE('',*,*,#177,.F.);
#222=ORIENTED_EDGE('',*,*,#178,.T.);
#223=ORIENTED_EDGE('',*,*,#179,.T.);
#224=ORIENTED_EDGE('',*,*,#166,.T.);
#225=ORIENTED_EDGE('',*,*,#172,.F.);
#226=ORIENTED_EDGE('',*,*,#174,.F.);
#227=ORIENTED_EDGE('',*,*,#177,.T.);
#228=ORIENTED_EDGE('',*,*,#180,.T.);
#229=ORIENTED_EDGE('',*,*,#168,.F.);
#230=ORIENTED_EDGE('',*,*,#181,.F.);
#231=ORIENTED_EDGE('',*,*,#176,.T.);
#232=ORIENTED_EDGE('',*,*,#182,.T.);
#233=ORIENTED_EDGE('',*,*,#169,.F.);
#234=ORIENTED_EDGE('',*,*,#180,.F.);
#235=ORIENTED_EDGE('',*,*,#175,.T.);
#236=ORIENTED_EDGE('',*,*,#173,.F.);
#237=ORIENTED_EDGE('',*,*,#164,.F.);
#238=ORIENTED_EDGE('',*,*,#182,.F.);
#239=ORIENTED_EDGE('',*,*,#178,.F.);
#240=ORIENTED_EDGE('',*,*,#181,.T.);
#241=ORIENTED_EDGE('',*,*,#167,.F.);
#242=ORIENTED_EDGE('',*,*,#179,.F.);
#243=ORIENTED_EDGE('',*,*,#161,.F.);
#244=ORIENTED_EDGE('',*,*,#183,.T.);
#245=ORIENTED_EDGE('',*,*,#170,.F.);
#246=ORIENTED_EDGE('',*,*,#183,.F.);
#247=ORIENTED_EDGE('',*,*,#184,.T.);
#248=ORIENTED_EDGE('',*,*,#185,.T.);
#249=ORIENTED_EDGE('',*,*,#186,.T.);
#250=ORIENTED_EDGE('',*,*,#187,.T.);
#251=ORIENTED_EDGE('',*,*,#188,.T.);
#252=ORIENTED_EDGE('',*,*,#189,.F.);
#253=ORIENTED_EDGE('',*,*,#190,.F.);
#254=ORIENTED_EDGE('',*,*,#186,.F.);
#255=ORIENTED_EDGE('',*,*,#191,.T.);
#256=ORIENTED_EDGE('',*,*,#192,.F.);
#257=ORIENTED_EDGE('',*,*,#191,.F.);
#258=ORIENTED_EDGE('',*,*,#185,.F.);
#259=ORIENTED_EDGE('',*,*,#193,.T.);
#260=ORIENTED_EDGE('',*,*,#194,.F.);
#261=ORIENTED_EDGE('',*,*,#193,.F.);
#262=ORIENTED_EDGE('',*,*,#184,.F.);
#263=ORIENTED_EDGE('',*,*,#195,.F.);
#264=ORIENTED_EDGE('',*,*,#188,.F.);
#265=ORIENTED_EDGE('',*,*,#196,.T.);
#266=ORIENTED_EDGE('',*,*,#197,.F.);
#267=ORIENTED_EDGE('',*,*,#196,.F.);
#268=ORIENTED_EDGE('',*,*,#194,.T.);
#269=ORIENTED_EDGE('',*,*,#198,.T.);
#270=ORIENTED_EDGE('',*,*,#189,.T.);
#271=ORIENTED_EDGE('',*,*,#192,.T.);
#272=ORIENTED_EDGE('',*,*,#197,.T.);
#273=ORIENTED_EDGE('',*,*,#195,.T.);
#274=ORIENTED_EDGE('',*,*,#187,.F.);
#275=ORIENTED_EDGE('',*,*,#190,.T.);
#276=ORIENTED_EDGE('',*,*,#198,.F.);
#277=PLANE('',#321);
#278=PLANE('',#326);
#279=PLANE('',#333);
#280=PLANE('',#337);
#281=PLANE('',#338);
#282=PLANE('',#339);
#283=PLANE('',#342);
#284=PLANE('',#345);
#285=PLANE('',#346);
#286=PLANE('',#347);
#287=PLANE('',#350);
#288=ADVANCED_FACE('',(#79,#74),#277,.F.);
#289=ADVANCED_FACE('',(#80),#67,.T.);
#290=ADVANCED_FACE('',(#81,#75),#278,.T.);
#291=ADVANCED_FACE('',(#82),#68,.F.);
#292=ADVANCED_FACE('',(#83,#76),#279,.T.);
#293=ADVANCED_FACE('',(#84),#69,.F.);
#294=ADVANCED_FACE('',(#85),#280,.T.);
#295=ADVANCED_FACE('',(#86),#281,.T.);
#296=ADVANCED_FACE('',(#87),#282,.T.);
#297=ADVANCED_FACE('',(#88),#70,.T.);
#298=ADVANCED_FACE('',(#89),#71,.F.);
#299=ADVANCED_FACE('',(#90,#77),#283,.T.);
#300=ADVANCED_FACE('',(#91),#284,.F.);
#301=ADVANCED_FACE('',(#92),#285,.F.);
#302=ADVANCED_FACE('',(#93),#286,.F.);
#303=ADVANCED_FACE('',(#94),#72,.F.);
#304=ADVANCED_FACE('',(#95,#78),#287,.F.);
#305=ADVANCED_FACE('',(#96),#73,.T.);
#306=CLOSED_SHELL('',(#288,#289,#290,#291,#292,#293,#294,#295,#296,#297,
#298));
#307=CLOSED_SHELL('',(#299,#300,#301,#302,#303,#304,#305));
#308=DERIVED_UNIT_ELEMENT(#310,1.);
#309=DERIVED_UNIT_ELEMENT(#532,-3.);
#310=(
MASS_UNIT()
NAMED_UNIT(*)
SI_UNIT(.KILO.,.GRAM.)
);
#311=DERIVED_UNIT((#308,#309));
#312=MEASURE_REPRESENTATION_ITEM('density measure',
POSITIVE_RATIO_MEASURE(7850.),#311);
#313=PROPERTY_DEFINITION_REPRESENTATION(#318,#315);
#314=PROPERTY_DEFINITION_REPRESENTATION(#319,#316);
#315=REPRESENTATION('material name',(#317),#530);
#316=REPRESENTATION('density',(#312),#530);
#317=DESCRIPTIVE_REPRESENTATION_ITEM('Acier','Acier');
#318=PROPERTY_DEFINITION('material property','material name',#539);
#319=PROPERTY_DEFINITION('material property','density of part',#539);
#320=AXIS2_PLACEMENT_3D('',#444,#353,#354);
#321=AXIS2_PLACEMENT_3D('',#445,#355,#356);
#322=AXIS2_PLACEMENT_3D('',#447,#357,#358);
#323=AXIS2_PLACEMENT_3D('',#449,#359,#360);
#324=AXIS2_PLACEMENT_3D('',#450,#361,#362);
#325=AXIS2_PLACEMENT_3D('',#452,#363,#364);
#326=AXIS2_PLACEMENT_3D('',#454,#366,#367);
#327=AXIS2_PLACEMENT_3D('',#459,#369,#370);
#328=AXIS2_PLACEMENT_3D('',#461,#371,#372);
#329=AXIS2_PLACEMENT_3D('',#463,#373,#374);
#330=AXIS2_PLACEMENT_3D('',#468,#377,#378);
#331=AXIS2_PLACEMENT_3D('',#469,#379,#380);
#332=AXIS2_PLACEMENT_3D('',#472,#381,#382);
#333=AXIS2_PLACEMENT_3D('',#475,#385,#386);
#334=AXIS2_PLACEMENT_3D('',#477,#387,#388);
#335=AXIS2_PLACEMENT_3D('',#484,#392,#393);
#336=AXIS2_PLACEMENT_3D('',#485,#394,#395);
#337=AXIS2_PLACEMENT_3D('',#487,#397,#398);
#338=AXIS2_PLACEMENT_3D('',#490,#401,#402);
#339=AXIS2_PLACEMENT_3D('',#492,#404,#405);
#340=AXIS2_PLACEMENT_3D('',#493,#406,#407);
#341=AXIS2_PLACEMENT_3D('',#494,#408,#409);
#342=AXIS2_PLACEMENT_3D('',#496,#411,#412);
#343=AXIS2_PLACEMENT_3D('',#504,#416,#417);
#344=AXIS2_PLACEMENT_3D('',#506,#418,#419);
#345=AXIS2_PLACEMENT_3D('',#507,#420,#421);
#346=AXIS2_PLACEMENT_3D('',#513,#425,#426);
#347=AXIS2_PLACEMENT_3D('',#517,#429,#430);
#348=AXIS2_PLACEMENT_3D('',#521,#433,#434);
#349=AXIS2_PLACEMENT_3D('',#524,#436,#437);
#350=AXIS2_PLACEMENT_3D('',#525,#438,#439);
#351=AXIS2_PLACEMENT_3D('',#526,#440,#441);
#352=AXIS2_PLACEMENT_3D('',#527,#442,#443);
#353=DIRECTION('axis',(0.,0.,1.));
#354=DIRECTION('refdir',(1.,0.,0.));
#355=DIRECTION('center_axis',(0.,0.,1.));
#356=DIRECTION('ref_axis',(1.,0.,0.));
#357=DIRECTION('center_axis',(0.,0.,1.));
#358=DIRECTION('ref_axis',(1.,0.,0.));
#359=DIRECTION('center_axis',(0.,0.,1.));
#360=DIRECTION('ref_axis',(1.,0.,0.));
#361=DIRECTION('center_axis',(0.,0.,1.));
#362=DIRECTION('ref_axis',(1.,0.,0.));
#363=DIRECTION('center_axis',(0.,0.,-1.));
#364=DIRECTION('ref_axis',(1.,0.,0.));
#365=DIRECTION('',(0.,0.,-1.));
#366=DIRECTION('center_axis',(0.,0.,1.));
#367=DIRECTION('ref_axis',(-1.,0.,0.));
#368=DIRECTION('',(-0.0104717841163262,0.999945169365511,0.));
#369=DIRECTION('center_axis',(0.,0.,-1.));
#370=DIRECTION('ref_axis',(-1.,0.,0.));
#371=DIRECTION('center_axis',(0.,0.,-1.));
#372=DIRECTION('ref_axis',(0.273310790856242,0.961925782792797,0.));
#373=DIRECTION('center_axis',(0.,0.,-1.));
#374=DIRECTION('ref_axis',(0.258562817001644,0.965994445979983,0.));
#375=DIRECTION('',(0.00998593646257783,-0.999950139293438,0.));
#376=DIRECTION('',(-0.999944566039008,-0.0105292378194742,0.));
#377=DIRECTION('center_axis',(0.,0.,-1.));
#378=DIRECTION('ref_axis',(1.,0.,0.));
#379=DIRECTION('center_axis',(0.,0.,-1.));
#380=DIRECTION('ref_axis',(0.00252147243512851,-0.999996821083327,0.));
#381=DIRECTION('center_axis',(0.,0.,1.));
#382=DIRECTION('ref_axis',(-1.,0.,0.));
#383=DIRECTION('',(0.,0.,-1.));
#384=DIRECTION('',(0.,0.,1.));
#385=DIRECTION('center_axis',(0.,0.,1.));
#386=DIRECTION('ref_axis',(1.,0.,0.));
#387=DIRECTION('center_axis',(0.,0.,-1.));
#388=DIRECTION('ref_axis',(0.273310790856242,0.961925782792797,0.));
#389=DIRECTION('',(-0.0104717841163262,0.999945169365511,0.));
#390=DIRECTION('',(-0.999944566039008,-0.0105292378194742,0.));
#391=DIRECTION('',(0.00998593646257783,-0.999950139293438,0.));
#392=DIRECTION('center_axis',(0.,0.,1.));
#393=DIRECTION('ref_axis',(0.258562817001644,0.965994445979983,0.));
#394=DIRECTION('center_axis',(0.,0.,-1.));
#395=DIRECTION('ref_axis',(0.273310790856242,0.961925782792797,0.));
#396=DIRECTION('',(0.,0.,-1.));
#397=DIRECTION('center_axis',(0.999950139293438,0.00998593646257783,0.));
#398=DIRECTION('ref_axis',(0.00998593646257783,-0.999950139293438,0.));
#399=DIRECTION('',(0.,0.,-1.));
#400=DIRECTION('',(0.,0.,-1.));
#401=DIRECTION('center_axis',(0.0105292378194742,-0.999944566039008,0.));
#402=DIRECTION('ref_axis',(-0.999944566039008,-0.0105292378194742,0.));
#403=DIRECTION('',(0.,0.,-1.));
#404=DIRECTION('center_axis',(-0.999945169365511,-0.0104717841163262,0.));
#405=DIRECTION('ref_axis',(-0.0104717841163262,0.999945169365511,0.));
#406=DIRECTION('center_axis',(0.,0.,-1.));
#407=DIRECTION('ref_axis',(0.258562817001644,0.965994445979983,0.));
#408=DIRECTION('center_axis',(0.,0.,1.));
#409=DIRECTION('ref_axis',(1.,0.,0.));
#410=DIRECTION('',(0.,0.,1.));
#411=DIRECTION('center_axis',(0.,0.,-1.));
#412=DIRECTION('ref_axis',(1.,0.,0.));
#413=DIRECTION('',(-0.109613532958847,0.99397428205778,0.));
#414=DIRECTION('',(-0.993910710788453,-0.110188470267959,0.));
#415=DIRECTION('',(0.109820721719847,-0.993951411831047,0.));
#416=DIRECTION('center_axis',(0.,0.,-1.));
#417=DIRECTION('ref_axis',(1.,0.,0.));
#418=DIRECTION('center_axis',(0.,0.,1.));
#419=DIRECTION('ref_axis',(1.,0.,0.));
#420=DIRECTION('center_axis',(-0.993951411831047,-0.109820721719847,0.));
#421=DIRECTION('ref_axis',(0.109820721719847,-0.993951411831047,0.));
#422=DIRECTION('',(-0.109820721719847,0.993951411831047,0.));
#423=DIRECTION('',(0.,0.,1.));
#424=DIRECTION('',(0.,0.,1.));
#425=DIRECTION('center_axis',(-0.110188470267959,0.993910710788453,0.));
#426=DIRECTION('ref_axis',(-0.993910710788453,-0.110188470267959,0.));
#427=DIRECTION('',(0.993910710788453,0.110188470267959,0.));
#428=DIRECTION('',(0.,0.,1.));
#429=DIRECTION('center_axis',(0.99397428205778,0.109613532958847,0.));
#430=DIRECTION('ref_axis',(-0.109613532958847,0.99397428205778,0.));
#431=DIRECTION('',(0.109613532958847,-0.99397428205778,0.));
#432=DIRECTION('',(0.,0.,-1.));
#433=DIRECTION('center_axis',(0.,0.,1.));
#434=DIRECTION('ref_axis',(1.,0.,0.));
#435=DIRECTION('',(0.,0.,1.));
#436=DIRECTION('center_axis',(0.,0.,-1.));
#437=DIRECTION('ref_axis',(1.,0.,0.));
#438=DIRECTION('center_axis',(0.,0.,-1.));
#439=DIRECTION('ref_axis',(1.,0.,0.));
#440=DIRECTION('center_axis',(0.,0.,1.));
#441=DIRECTION('ref_axis',(1.,0.,0.));
#442=DIRECTION('center_axis',(0.,0.,1.));
#443=DIRECTION('ref_axis',(-0.110713893053533,0.993852319957513,0.));
#444=CARTESIAN_POINT('',(0.,0.,0.));
#445=CARTESIAN_POINT('Origin',(0.,0.,0.));
#446=CARTESIAN_POINT('',(-0.0175,-2.14313189850787E-18,0.));
#447=CARTESIAN_POINT('Origin',(0.,0.,0.));
#448=CARTESIAN_POINT('',(-0.0045,-5.51091059616309E-19,0.));
#449=CARTESIAN_POINT('Origin',(0.,0.,0.));
#450=CARTESIAN_POINT('Origin',(0.,0.,0.));
#451=CARTESIAN_POINT('',(-0.0175,-2.22044604925031E-18,0.055));
#452=CARTESIAN_POINT('Origin',(0.,0.,0.055));
#453=CARTESIAN_POINT('',(-0.0175,-2.14313189850787E-18,0.));
#454=CARTESIAN_POINT('Origin',(0.,0.,0.005));
#455=CARTESIAN_POINT('',(-0.00349093692184388,0.00834748985372745,0.005));
#456=CARTESIAN_POINT('',(-0.00353072970148599,0.0121472814973167,0.005));
#457=CARTESIAN_POINT('',(-0.00344704135743253,0.00415592544577982,0.005));
#458=CARTESIAN_POINT('',(0.00346942692979506,0.012164932255414,0.005));
#459=CARTESIAN_POINT('Origin',(0.,0.,0.005));
#460=CARTESIAN_POINT('',(0.00138365655177356,0.0125726084579353,0.005));
#461=CARTESIAN_POINT('Origin',(1.14525811767408E-7,-4.54200673002392E-5,
0.005));
#462=CARTESIAN_POINT('',(0.00326889745019975,0.0122184896292893,0.005));
#463=CARTESIAN_POINT('Origin',(-3.26597296715303E-6,-6.36052423436562E-6,
0.005));
#464=CARTESIAN_POINT('',(0.0033068401127227,0.00841906923269667,0.005));
#465=CARTESIAN_POINT('',(0.00332973795345124,0.00612617470930119,0.005));
#466=CARTESIAN_POINT('',(0.00160928262845154,0.00840119425535175,0.005));
#467=CARTESIAN_POINT('',(-0.0045,5.51091059616309E-19,0.005));
#468=CARTESIAN_POINT('Origin',(0.,0.,0.005));
#469=CARTESIAN_POINT('Origin',(0.,0.,0.065));
#470=CARTESIAN_POINT('',(-0.00353072970148599,0.0121472814973167,0.055));
#471=CARTESIAN_POINT('',(0.00346942692979506,0.012164932255414,0.055));
#472=CARTESIAN_POINT('Origin',(0.,0.,0.055));
#473=CARTESIAN_POINT('',(0.00346942692979506,0.012164932255414,0.065));
#474=CARTESIAN_POINT('',(-0.00353072970148599,0.0121472814973164,0.065));
#475=CARTESIAN_POINT('Origin',(0.,0.,0.055));
#476=CARTESIAN_POINT('',(0.00138365655177356,0.0125726084579353,0.055));
#477=CARTESIAN_POINT('Origin',(1.14525811767408E-7,-4.54200673002392E-5,
0.055));
#478=CARTESIAN_POINT('',(-0.00349093692184388,0.00834748985372745,0.055));
#479=CARTESIAN_POINT('',(-0.00349093692184388,0.00834748985372745,0.055));
#480=CARTESIAN_POINT('',(0.0033068401127227,0.00841906923269667,0.055));
#481=CARTESIAN_POINT('',(0.0033068401127227,0.00841906923269667,0.055));
#482=CARTESIAN_POINT('',(0.00326889745019975,0.0122184896292893,0.055));
#483=CARTESIAN_POINT('',(0.00326889745019975,0.0122184896292893,0.055));
#484=CARTESIAN_POINT('Origin',(-3.26597296715303E-6,-6.36052423436562E-6,
0.055));
#485=CARTESIAN_POINT('Origin',(1.14525811767408E-7,-4.54200673002392E-5,
0.055));
#486=CARTESIAN_POINT('',(0.00138365655269852,0.0125726084578334,0.055));
#487=CARTESIAN_POINT('Origin',(0.00326889745019975,0.0122184896292893,0.055));
#488=CARTESIAN_POINT('',(0.0033068401127227,0.00841906923269667,0.055));
#489=CARTESIAN_POINT('',(0.00326889745019975,0.0122184896292893,0.055));
#490=CARTESIAN_POINT('Origin',(0.0033068401127227,0.00841906923269667,0.055));
#491=CARTESIAN_POINT('',(-0.00349093692184388,0.00834748985372745,0.055));
#492=CARTESIAN_POINT('Origin',(-0.00349093692184388,0.00834748985372745,
0.055));
#493=CARTESIAN_POINT('Origin',(-3.26597296715303E-6,-6.36052423436562E-6,
0.055));
#494=CARTESIAN_POINT('Origin',(0.,0.,-0.06));
#495=CARTESIAN_POINT('',(-0.0045,-5.51091059616309E-19,-0.06));
#496=CARTESIAN_POINT('Origin',(7.36583336725882E-6,3.20570769964057E-6,
-0.095));
#497=CARTESIAN_POINT('',(0.00347511370355874,-0.00854520640852302,-0.095));
#498=CARTESIAN_POINT('',(0.00314656281236219,-0.00556591062832824,-0.095));
#499=CARTESIAN_POINT('',(0.00298859327617716,-0.00413344465375312,-0.095));
#500=CARTESIAN_POINT('',(-0.00182361260764694,-0.00611692192194814,-0.095));
#501=CARTESIAN_POINT('',(0.00190097945273021,-0.0057040004220082,-0.095));
#502=CARTESIAN_POINT('',(-0.00149415044248747,-0.00909877615744069,-0.095));
#503=CARTESIAN_POINT('',(-0.0021465970043573,-0.00319369584874308,-0.095));
#504=CARTESIAN_POINT('Origin',(7.36583336725882E-6,3.20570769964057E-6,
-0.095));
#505=CARTESIAN_POINT('',(-0.00449263416663274,3.20570769964057E-6,-0.095));
#506=CARTESIAN_POINT('Origin',(7.36583336725882E-6,3.20570769964057E-6,
-0.095));
#507=CARTESIAN_POINT('Origin',(-0.00182361260764694,-0.00611692192194814,
-0.085));
#508=CARTESIAN_POINT('',(-0.00149415044248747,-0.00909877615744069,0.));
#509=CARTESIAN_POINT('',(-0.00182361260764694,-0.00611692192194814,0.));
#510=CARTESIAN_POINT('',(-0.0021465970043573,-0.00319369584874308,8.88178419700125E-18));
#511=CARTESIAN_POINT('',(-0.00149415044248747,-0.00909877615744068,-0.085));
#512=CARTESIAN_POINT('',(-0.00182361260764694,-0.00611692192194814,-0.085));
#513=CARTESIAN_POINT('Origin',(0.00314656281236219,-0.00556591062832824,
-0.085));
#514=CARTESIAN_POINT('',(0.00314656281236219,-0.00556591062832824,0.));
#515=CARTESIAN_POINT('',(0.00190097945273021,-0.0057040004220082,8.88178419700125E-18));
#516=CARTESIAN_POINT('',(0.00314656281236219,-0.00556591062832824,-0.085));
#517=CARTESIAN_POINT('Origin',(0.00347511370355874,-0.00854520640852302,
-0.085));
#518=CARTESIAN_POINT('',(0.00347511370355874,-0.00854520640852302,0.));
#519=CARTESIAN_POINT('',(0.00298859327617716,-0.00413344465375312,0.));
#520=CARTESIAN_POINT('',(0.00347511370355874,-0.00854520640852302,-0.085));
#521=CARTESIAN_POINT('Origin',(7.36583336725882E-6,3.20570769964057E-6,
-0.085));
#522=CARTESIAN_POINT('',(-0.00449263416663274,3.20570769964057E-6,0.));
#523=CARTESIAN_POINT('',(-0.00449263416663274,3.20570769964002E-6,-0.085));
#524=CARTESIAN_POINT('Origin',(7.36583336725882E-6,3.20570769964057E-6,
0.));
#525=CARTESIAN_POINT('Origin',(7.36583336725882E-6,3.20570769964057E-6,
0.));
#526=CARTESIAN_POINT('Origin',(7.36583336725882E-6,3.20570769964057E-6,
0.));
#527=CARTESIAN_POINT('Origin',(7.36583336725882E-6,3.20570769964057E-6,
-0.085));
#528=UNCERTAINTY_MEASURE_WITH_UNIT(LENGTH_MEASURE(1.E-5),#532,
'DISTANCE_ACCURACY_VALUE',
'Maximum model space distance between geometric entities at asserted c
onnectivities');
#529=UNCERTAINTY_MEASURE_WITH_UNIT(LENGTH_MEASURE(1.E-5),#532,
'DISTANCE_ACCURACY_VALUE',
'Maximum model space distance between geometric entities at asserted c
onnectivities');
#530=(
GEOMETRIC_REPRESENTATION_CONTEXT(3)
GLOBAL_UNCERTAINTY_ASSIGNED_CONTEXT((#528))
GLOBAL_UNIT_ASSIGNED_CONTEXT((#532,#533,#534))
REPRESENTATION_CONTEXT('','3D')
);
#531=(
GEOMETRIC_REPRESENTATION_CONTEXT(3)
GLOBAL_UNCERTAINTY_ASSIGNED_CONTEXT((#529))
GLOBAL_UNIT_ASSIGNED_CONTEXT((#532,#533,#534))
REPRESENTATION_CONTEXT('','3D')
);
#532=(
LENGTH_UNIT()
NAMED_UNIT(*)
SI_UNIT($,.METRE.)
);
#533=(
NAMED_UNIT(*)
PLANE_ANGLE_UNIT()
SI_UNIT($,.RADIAN.)
);
#534=(
NAMED_UNIT(*)
SI_UNIT($,.STERADIAN.)
SOLID_ANGLE_UNIT()
);
#535=SHAPE_DEFINITION_REPRESENTATION(#536,#537);
#536=PRODUCT_DEFINITION_SHAPE('',$,#539);
#537=SHAPE_REPRESENTATION('',(#320),#530);
#538=PRODUCT_DEFINITION_CONTEXT('part definition',#543,'design');
#539=PRODUCT_DEFINITION('Arbre_adaptation','Arbre_adaptation v5',#540,#538);
#540=PRODUCT_DEFINITION_FORMATION('',$,#545);
#541=PRODUCT_RELATED_PRODUCT_CATEGORY('Arbre_adaptation v5',
'Arbre_adaptation v5',(#545));
#542=APPLICATION_PROTOCOL_DEFINITION('international standard',
'ap242_managed_model_based_3d_engineering',2011,#543);
#543=APPLICATION_CONTEXT('Managed model based 3d engineering');
#544=PRODUCT_CONTEXT('part definition',#543,'mechanical');
#545=PRODUCT('Arbre_adaptation','Arbre_adaptation v5',$,(#544));
#546=PRESENTATION_STYLE_ASSIGNMENT((#547));
#547=SURFACE_STYLE_USAGE(.BOTH.,#548);
#548=SURFACE_SIDE_STYLE('',(#549));
#549=SURFACE_STYLE_FILL_AREA(#550);
#550=FILL_AREA_STYLE('Acier - Satin\X\E9',(#551));
#551=FILL_AREA_STYLE_COLOUR('Acier - Satin\X\E9',#552);
#552=COLOUR_RGB('Acier - Satin\X\E9',0.627450980392157,0.627450980392157,
0.627450980392157);
ENDSEC;
END-ISO-10303-21;
