ISO-10303-21;
HEADER;
FILE_DESCRIPTION (( 'STEP AP214' ),
    '1' );
FILE_NAME ('AE054224.STEP',
    '2025-01-17T16:05:33',
    ( '' ),
    ( '' ),
    'SwSTEP 2.0',
    'SolidWorks 2022',
    '' );
FILE_SCHEMA (( 'AUTOMOTIVE_DESIGN' ));
ENDSEC;

DATA;
#1 = CARTESIAN_POINT ( 'NONE',  ( -0.5000000000000007772, 3.580000000000000071, 0.1250000000000000000 ) ) ;
#2 = FACE_BOUND ( 'NONE', #217, .T. ) ;
#3 = EDGE_CURVE ( 'NONE', #124, #253, #230, .T. ) ;
#4 = DIRECTION ( 'NONE',  ( 0.000000000000000000, 0.000000000000000000, 1.000000000000000000 ) ) ;
#5 = EDGE_LOOP ( 'NONE', ( #197, #346, #65, #48 ) ) ;
#6 = CIRCLE ( 'NONE', #56, 0.2600000000000001199 ) ;
#7 = FACE_BOUND ( 'NONE', #256, .T. ) ;
#8 = ORIENTED_EDGE ( 'NONE', *, *, #3, .T. ) ;
#9 = DIRECTION ( 'NONE',  ( 1.000000000000000000, 0.000000000000000000, 0.000000000000000000 ) ) ;
#10 = ORIENTED_EDGE ( 'NONE', *, *, #201, .F. ) ;
#11 = CARTESIAN_POINT ( 'NONE',  ( -0.5000000000000007772, 3.580000000000000071, 0.1250000000000000000 ) ) ;
#12 = DIRECTION ( 'NONE',  ( 0.000000000000000000, 0.000000000000000000, 1.000000000000000000 ) ) ;
#13 = VECTOR ( 'NONE', #219, 39.37007874015748143 ) ;
#14 = ORIENTED_EDGE ( 'NONE', *, *, #283, .T. ) ;
#15 = LENGTH_MEASURE_WITH_UNIT ( LENGTH_MEASURE( 0.02539999999999999897 ), #155 );
#16 = DIRECTION ( 'NONE',  ( -1.000000000000000000, 0.000000000000000000, 0.000000000000000000 ) ) ;
#17 = SURFACE_SIDE_STYLE ('',( #357 ) ) ;
#18 = CARTESIAN_POINT ( 'NONE',  ( 0.4999999999999991118, 3.580000000000000071, 0.1250000000000000000 ) ) ;
#19 = PRESENTATION_LAYER_ASSIGNMENT (  '', '', ( #175 ) ) ;
#20 = DIRECTION ( 'NONE',  ( 1.000000000000000000, 0.000000000000000000, 0.000000000000000000 ) ) ;
#21 = ORIENTED_EDGE ( 'NONE', *, *, #174, .F. ) ;
#22 = DIRECTION ( 'NONE',  ( -1.000000000000000000, 0.000000000000000000, 0.000000000000000000 ) ) ;
#23 = ADVANCED_FACE ( 'NONE', ( #54 ), #323, .T. ) ;
#24 = DIRECTION ( 'NONE',  ( -1.240014801593415687E-16, 1.000000000000000000, 0.000000000000000000 ) ) ;
#25 = FACE_OUTER_BOUND ( 'NONE', #266, .T. ) ;
#26 = ORIENTED_EDGE ( 'NONE', *, *, #225, .F. ) ;
#27 = DIRECTION ( 'NONE',  ( 0.000000000000000000, 0.000000000000000000, 1.000000000000000000 ) ) ;
#28 = CIRCLE ( 'NONE', #98, 0.2600000000000001199 ) ;
#29 = CYLINDRICAL_SURFACE ( 'NONE', #31, 0.4999999999999999445 ) ;
#30 = ADVANCED_FACE ( 'NONE', ( #185 ), #268, .F. ) ;
#31 = AXIS2_PLACEMENT_3D ( 'NONE', #360, #192, #138 ) ;
#32 = DIRECTION ( 'NONE',  ( 0.000000000000000000, 0.000000000000000000, 1.000000000000000000 ) ) ;
#33 = DIRECTION ( 'NONE',  ( -0.000000000000000000, -0.000000000000000000, -1.000000000000000000 ) ) ;
#34 = ORIENTED_EDGE ( 'NONE', *, *, #137, .T. ) ;
#35 = ADVANCED_FACE ( 'NONE', ( #358 ), #300, .F. ) ;
#36 = AXIS2_PLACEMENT_3D ( 'NONE', #280, #32, #62 ) ;
#37 = DIRECTION ( 'NONE',  ( -1.000000000000000000, 0.000000000000000000, 0.000000000000000000 ) ) ;
#38 = ORIENTED_EDGE ( 'NONE', *, *, #270, .F. ) ;
#39 = CARTESIAN_POINT ( 'NONE',  ( 0.5000000000000000000, -3.580000000000000071, 0.1250000000000000000 ) ) ;
#40 = VERTEX_POINT ( 'NONE', #157 ) ;
#41 = LINE ( 'NONE', #349, #303 ) ;
#42 = EDGE_CURVE ( 'NONE', #124, #294, #320, .T. ) ;
#43 = ORIENTED_EDGE ( 'NONE', *, *, #170, .T. ) ;
#44 =( CONVERSION_BASED_UNIT ( 'INCH', #15 ) LENGTH_UNIT ( ) NAMED_UNIT ( #311 ) );
#45 = AXIS2_PLACEMENT_3D ( 'NONE', #1, #164, #24 ) ;
#46 = DIRECTION ( 'NONE',  ( -0.000000000000000000, -0.000000000000000000, -1.000000000000000000 ) ) ;
#47 = APPLICATION_PROTOCOL_DEFINITION ( 'draft international standard', 'automotive_design', 1998, #274 ) ;
#48 = ORIENTED_EDGE ( 'NONE', *, *, #42, .T. ) ;
#49 = ORIENTED_EDGE ( 'NONE', *, *, #201, .T. ) ;
#50 = ADVANCED_FACE ( 'NONE', ( #326 ), #81, .F. ) ;
#51 = CARTESIAN_POINT ( 'NONE',  ( 0.000000000000000000, 3.580000000000000071, 0.1250000000000000000 ) ) ;
#52 = DIRECTION ( 'NONE',  ( -1.000000000000000000, 0.000000000000000000, 0.000000000000000000 ) ) ;
#53 = PRODUCT_DEFINITION_SHAPE ( 'NONE', 'NONE',  #105 ) ;
#54 = FACE_OUTER_BOUND ( 'NONE', #5, .T. ) ;
#55 = DIRECTION ( 'NONE',  ( 1.000000000000000000, 0.000000000000000000, 0.000000000000000000 ) ) ;
#56 = AXIS2_PLACEMENT_3D ( 'NONE', #284, #255, #9 ) ;
#57 = DIRECTION ( 'NONE',  ( 0.000000000000000000, 0.000000000000000000, 1.000000000000000000 ) ) ;
#58 = DIRECTION ( 'NONE',  ( 1.240014801593415687E-16, -1.000000000000000000, 0.000000000000000000 ) ) ;
#59 = EDGE_CURVE ( 'NONE', #325, #260, #116, .T. ) ;
#60 = CARTESIAN_POINT ( 'NONE',  ( 0.4999999999999991118, 3.580000000000000071, 0.1250000000000000000 ) ) ;
#61 = MECHANICAL_DESIGN_GEOMETRIC_PRESENTATION_REPRESENTATION (  '', ( #348 ), #188 ) ;
#62 = DIRECTION ( 'NONE',  ( 1.000000000000000000, 0.000000000000000000, 0.000000000000000000 ) ) ;
#63 = ADVANCED_BREP_SHAPE_REPRESENTATION ( 'AE054224', ( #158, #263 ), #85 ) ;
#64 = CARTESIAN_POINT ( 'NONE',  ( -0.2600000000000001199, -3.580000000000000071, 0.1250000000000000000 ) ) ;
#65 = ORIENTED_EDGE ( 'NONE', *, *, #3, .F. ) ;
#66 = CARTESIAN_POINT ( 'NONE',  ( 0.000000000000000000, 3.580000000000000071, 0.1250000000000000000 ) ) ;
#67 = ORIENTED_EDGE ( 'NONE', *, *, #283, .F. ) ;
#68 = VECTOR ( 'NONE', #33, 39.37007874015748143 ) ;
#69 = DIRECTION ( 'NONE',  ( 0.000000000000000000, 0.000000000000000000, 1.000000000000000000 ) ) ;
#70 = ORIENTED_EDGE ( 'NONE', *, *, #301, .F. ) ;
#71 = CARTESIAN_POINT ( 'NONE',  ( 0.4999999999999999445, -3.580000000000000071, 0.1250000000000000000 ) ) ;
#72 = EDGE_CURVE ( 'NONE', #276, #131, #247, .T. ) ;
#73 = VERTEX_POINT ( 'NONE', #329 ) ;
#74 = SURFACE_STYLE_USAGE ( .BOTH. , #17 ) ;
#75 = APPLICATION_CONTEXT ( 'automotive_design' ) ;
#76 = AXIS2_PLACEMENT_3D ( 'NONE', #321, #160, #156 ) ;
#77 = ORIENTED_EDGE ( 'NONE', *, *, #305, .F. ) ;
#78 =( NAMED_UNIT ( * ) PLANE_ANGLE_UNIT ( ) SI_UNIT ( $, .RADIAN. ) );
#79 = ORIENTED_EDGE ( 'NONE', *, *, #225, .T. ) ;
#80 = DIRECTION ( 'NONE',  ( -1.000000000000000000, 0.000000000000000000, 0.000000000000000000 ) ) ;
#81 = CYLINDRICAL_SURFACE ( 'NONE', #328, 0.2600000000000001199 ) ;
#82 = VECTOR ( 'NONE', #123, 39.37007874015748143 ) ;
#83 = CARTESIAN_POINT ( 'NONE',  ( -0.5000000000000007772, 3.580000000000000071, -0.1250000000000000000 ) ) ;
#84 = SURFACE_SIDE_STYLE ('',( #306 ) ) ;
#85 =( GEOMETRIC_REPRESENTATION_CONTEXT ( 3 ) GLOBAL_UNCERTAINTY_ASSIGNED_CONTEXT ( ( #151 ) ) GLOBAL_UNIT_ASSIGNED_CONTEXT ( ( #44, #291, #259 ) ) REPRESENTATION_CONTEXT ( 'NONE', 'WORKASPACE' ) );
#86 = LINE ( 'NONE', #83, #293 ) ;
#87 = ORIENTED_EDGE ( 'NONE', *, *, #72, .T. ) ;
#88 = LINE ( 'NONE', #343, #68 ) ;
#89 = EDGE_LOOP ( 'NONE', ( #135, #67, #216, #354 ) ) ;
#90 = VECTOR ( 'NONE', #333, 39.37007874015748143 ) ;
#91 = ADVANCED_FACE ( 'NONE', ( #25 ), #163, .F. ) ;
#92 = CARTESIAN_POINT ( 'NONE',  ( 0.2600000000000001199, -3.580000000000000071, 0.1250000000000000000 ) ) ;
#93 = EDGE_LOOP ( 'NONE', ( #309, #149, #34, #237 ) ) ;
#94 = LINE ( 'NONE', #64, #82 ) ;
#95 = CARTESIAN_POINT ( 'NONE',  ( -0.4999999999999998335, -3.580000000000000071, 0.1250000000000000000 ) ) ;
#96 = ORIENTED_EDGE ( 'NONE', *, *, #59, .F. ) ;
#97 = AXIS2_PLACEMENT_3D ( 'NONE', #113, #193, #55 ) ;
#98 = AXIS2_PLACEMENT_3D ( 'NONE', #171, #252, #148 ) ;
#99 = CARTESIAN_POINT ( 'NONE',  ( 0.000000000000000000, 3.580000000000000071, -0.1250000000000000000 ) ) ;
#100 = UNCERTAINTY_MEASURE_WITH_UNIT (LENGTH_MEASURE( 1.000000000000000082E-05 ), #236, 'distance_accuracy_value', 'NONE');
#101 = SHAPE_DEFINITION_REPRESENTATION ( #53, #63 ) ;
#102 = ORIENTED_EDGE ( 'NONE', *, *, #324, .F. ) ;
#103 = PRESENTATION_STYLE_ASSIGNMENT (( #74 ) ) ;
#104 = CARTESIAN_POINT ( 'NONE',  ( -5.802782442176788273E-25, -3.580000000000000071, 0.1250000000000000000 ) ) ;
#105 = PRODUCT_DEFINITION ( 'UNKNOWN', '', #304, #200 ) ;
#106 = AXIS2_PLACEMENT_3D ( 'NONE', #251, #4, #341 ) ;
#107 = ORIENTED_EDGE ( 'NONE', *, *, #362, .F. ) ;
#108 = PRODUCT_CONTEXT ( 'NONE', #274, 'mechanical' ) ;
#109 = CARTESIAN_POINT ( 'NONE',  ( 0.000000000000000000, 3.580000000000000071, 0.1250000000000000000 ) ) ;
#110 = DIRECTION ( 'NONE',  ( -1.000000000000000000, -1.240014801593415687E-16, 0.000000000000000000 ) ) ;
#111 = DIRECTION ( 'NONE',  ( -0.000000000000000000, -0.000000000000000000, -1.000000000000000000 ) ) ;
#112 = AXIS2_PLACEMENT_3D ( 'NONE', #222, #331, #199 ) ;
#113 = CARTESIAN_POINT ( 'NONE',  ( 0.000000000000000000, 3.580000000000000071, 0.1250000000000000000 ) ) ;
#114 = FILL_AREA_STYLE ('',( #277 ) ) ;
#115 = PRESENTATION_STYLE_ASSIGNMENT (( #119 ) ) ;
#116 = CIRCLE ( 'NONE', #128, 0.2600000000000001199 ) ;
#117 = AXIS2_PLACEMENT_3D ( 'NONE', #150, #339, #145 ) ;
#118 = AXIS2_PLACEMENT_3D ( 'NONE', #132, #110, #240 ) ;
#119 = SURFACE_STYLE_USAGE ( .BOTH. , #84 ) ;
#120 = PLANE ( 'NONE',  #134 ) ;
#121 = DIRECTION ( 'NONE',  ( -0.000000000000000000, -0.000000000000000000, -1.000000000000000000 ) ) ;
#122 = VERTEX_POINT ( 'NONE', #244 ) ;
#123 = DIRECTION ( 'NONE',  ( -0.000000000000000000, -0.000000000000000000, -1.000000000000000000 ) ) ;
#124 = VERTEX_POINT ( 'NONE', #60 ) ;
#125 = PLANE ( 'NONE',  #142 ) ;
#126 = ORIENTED_EDGE ( 'NONE', *, *, #305, .T. ) ;
#127 = FACE_OUTER_BOUND ( 'NONE', #242, .T. ) ;
#128 = AXIS2_PLACEMENT_3D ( 'NONE', #136, #27, #248 ) ;
#129 = FILL_AREA_STYLE_COLOUR ( '', #241 ) ;
#130 = AXIS2_PLACEMENT_3D ( 'NONE', #109, #297, #16 ) ;
#131 = VERTEX_POINT ( 'NONE', #165 ) ;
#132 = CARTESIAN_POINT ( 'NONE',  ( 0.5000000000000000000, -3.580000000000000071, 0.1250000000000000000 ) ) ;
#133 = EDGE_CURVE ( 'NONE', #122, #73, #299, .T. ) ;
#134 = AXIS2_PLACEMENT_3D ( 'NONE', #66, #69, #146 ) ;
#135 = ORIENTED_EDGE ( 'NONE', *, *, #327, .T. ) ;
#136 = CARTESIAN_POINT ( 'NONE',  ( -5.802782442176788273E-25, -3.580000000000000071, 0.1250000000000000000 ) ) ;
#137 = EDGE_CURVE ( 'NONE', #153, #40, #246, .T. ) ;
#138 = DIRECTION ( 'NONE',  ( -1.000000000000000000, 0.000000000000000000, 0.000000000000000000 ) ) ;
#139 = LINE ( 'NONE', #363, #298 ) ;
#140 = CARTESIAN_POINT ( 'NONE',  ( -0.2600000000000001199, 3.580000000000000071, 0.1250000000000000000 ) ) ;
#141 = CARTESIAN_POINT ( 'NONE',  ( 0.2600000000000001199, 3.580000000000000071, 0.1250000000000000000 ) ) ;
#142 = AXIS2_PLACEMENT_3D ( 'NONE', #227, #176, #206 ) ;
#143 = CIRCLE ( 'NONE', #347, 0.4999999999999999445 ) ;
#144 = AXIS2_PLACEMENT_3D ( 'NONE', #330, #57, #334 ) ;
#145 = DIRECTION ( 'NONE',  ( 1.000000000000000000, 0.000000000000000000, 0.000000000000000000 ) ) ;
#146 = DIRECTION ( 'NONE',  ( 1.000000000000000000, 0.000000000000000000, -0.000000000000000000 ) ) ;
#147 = DIRECTION ( 'NONE',  ( -0.000000000000000000, -0.000000000000000000, -1.000000000000000000 ) ) ;
#148 = DIRECTION ( 'NONE',  ( 1.000000000000000000, 0.000000000000000000, 0.000000000000000000 ) ) ;
#149 = ORIENTED_EDGE ( 'NONE', *, *, #187, .T. ) ;
#150 = CARTESIAN_POINT ( 'NONE',  ( 0.000000000000000000, 3.580000000000000071, -0.1250000000000000000 ) ) ;
#151 = UNCERTAINTY_MEASURE_WITH_UNIT (LENGTH_MEASURE( 1.000000000000000082E-05 ), #44, 'distance_accuracy_value', 'NONE');
#152 = VERTEX_POINT ( 'NONE', #198 ) ;
#153 = VERTEX_POINT ( 'NONE', #140 ) ;
#154 = ORIENTED_EDGE ( 'NONE', *, *, #161, .T. ) ;
#155 =( LENGTH_UNIT ( ) NAMED_UNIT ( * ) SI_UNIT ( $, .METRE. ) );
#156 = DIRECTION ( 'NONE',  ( 1.000000000000000000, 0.000000000000000000, 0.000000000000000000 ) ) ;
#157 = CARTESIAN_POINT ( 'NONE',  ( -0.2600000000000001199, 3.580000000000000071, -0.1250000000000000000 ) ) ;
#158 = MANIFOLD_SOLID_BREP ( 'Boss-Extrude1', #207 ) ;
#159 = CIRCLE ( 'NONE', #212, 0.2600000000000001199 ) ;
#160 = DIRECTION ( 'NONE',  ( 0.000000000000000000, 0.000000000000000000, 1.000000000000000000 ) ) ;
#161 = EDGE_CURVE ( 'NONE', #319, #294, #302, .T. ) ;
#162 = ORIENTED_EDGE ( 'NONE', *, *, #307, .T. ) ;
#163 = PLANE ( 'NONE',  #45 ) ;
#164 = DIRECTION ( 'NONE',  ( 1.000000000000000000, 1.240014801593415687E-16, -0.000000000000000000 ) ) ;
#165 = CARTESIAN_POINT ( 'NONE',  ( 0.2600000000000001199, 3.580000000000000071, -0.1250000000000000000 ) ) ;
#166 = EDGE_LOOP ( 'NONE', ( #290, #239 ) ) ;
#167 = FACE_OUTER_BOUND ( 'NONE', #89, .T. ) ;
#168 = CARTESIAN_POINT ( 'NONE',  ( -0.5000000000000007772, 3.580000000000000071, -0.1250000000000000000 ) ) ;
#169 = CARTESIAN_POINT ( 'NONE',  ( -0.2600000000000001199, -3.580000000000000071, 0.1250000000000000000 ) ) ;
#170 = EDGE_CURVE ( 'NONE', #356, #152, #262, .T. ) ;
#171 = CARTESIAN_POINT ( 'NONE',  ( -5.802782442176788273E-25, -3.580000000000000071, 0.1250000000000000000 ) ) ;
#172 = ORIENTED_EDGE ( 'NONE', *, *, #316, .T. ) ;
#173 = DIRECTION ( 'NONE',  ( 0.000000000000000000, 0.000000000000000000, 1.000000000000000000 ) ) ;
#174 = EDGE_CURVE ( 'NONE', #178, #243, #86, .T. ) ;
#175 = STYLED_ITEM ( 'NONE', ( #103 ), #63 ) ;
#176 = DIRECTION ( 'NONE',  ( 0.000000000000000000, 0.000000000000000000, 1.000000000000000000 ) ) ;
#177 = DIRECTION ( 'NONE',  ( 1.000000000000000000, 0.000000000000000000, 0.000000000000000000 ) ) ;
#178 = VERTEX_POINT ( 'NONE', #168 ) ;
#179 = ADVANCED_FACE ( 'NONE', ( #167 ), #29, .T. ) ;
#180 = DIRECTION ( 'NONE',  ( -0.000000000000000000, -0.000000000000000000, -1.000000000000000000 ) ) ;
#181 =( LENGTH_UNIT ( ) NAMED_UNIT ( * ) SI_UNIT ( $, .METRE. ) );
#182 = EDGE_LOOP ( 'NONE', ( #258, #214, #70, #77 ) ) ;
#183 =( GEOMETRIC_REPRESENTATION_CONTEXT ( 3 ) GLOBAL_UNCERTAINTY_ASSIGNED_CONTEXT ( ( #100 ) ) GLOBAL_UNIT_ASSIGNED_CONTEXT ( ( #236, #78, #295 ) ) REPRESENTATION_CONTEXT ( 'NONE', 'WORKASPACE' ) );
#184 = FILL_AREA_STYLE ('',( #129 ) ) ;
#185 = FACE_OUTER_BOUND ( 'NONE', #93, .T. ) ;
#186 = CYLINDRICAL_SURFACE ( 'NONE', #254, 0.2600000000000001199 ) ;
#187 = EDGE_CURVE ( 'NONE', #276, #153, #191, .T. ) ;
#188 =( GEOMETRIC_REPRESENTATION_CONTEXT ( 3 ) GLOBAL_UNCERTAINTY_ASSIGNED_CONTEXT ( ( #288 ) ) GLOBAL_UNIT_ASSIGNED_CONTEXT ( ( #220, #195, #271 ) ) REPRESENTATION_CONTEXT ( 'NONE', 'WORKASPACE' ) );
#189 = VECTOR ( 'NONE', #310, 39.37007874015748143 ) ;
#190 = DIRECTION ( 'NONE',  ( -0.000000000000000000, -0.000000000000000000, -1.000000000000000000 ) ) ;
#191 = CIRCLE ( 'NONE', #97, 0.2600000000000001199 ) ;
#192 = DIRECTION ( 'NONE',  ( -0.000000000000000000, -0.000000000000000000, -1.000000000000000000 ) ) ;
#193 = DIRECTION ( 'NONE',  ( 0.000000000000000000, 0.000000000000000000, 1.000000000000000000 ) ) ;
#194 = EDGE_CURVE ( 'NONE', #356, #243, #139, .T. ) ;
#195 =( NAMED_UNIT ( * ) PLANE_ANGLE_UNIT ( ) SI_UNIT ( $, .RADIAN. ) );
#196 = ADVANCED_FACE ( 'NONE', ( #345, #2, #7 ), #125, .F. ) ;
#197 = ORIENTED_EDGE ( 'NONE', *, *, #270, .T. ) ;
#198 = CARTESIAN_POINT ( 'NONE',  ( 0.4999999999999999445, -3.580000000000000071, 0.1250000000000000000 ) ) ;
#199 = DIRECTION ( 'NONE',  ( 1.000000000000000000, 0.000000000000000000, 0.000000000000000000 ) ) ;
#200 = PRODUCT_DEFINITION_CONTEXT ( 'detailed design', #75, 'design' ) ;
#201 = EDGE_CURVE ( 'NONE', #152, #124, #287, .T. ) ;
#202 = CARTESIAN_POINT ( 'NONE',  ( 0.2600000000000001199, -3.580000000000000071, 0.1250000000000000000 ) ) ;
#203 = DIRECTION ( 'NONE',  ( 0.000000000000000000, 0.000000000000000000, 1.000000000000000000 ) ) ;
#204 = DIRECTION ( 'NONE',  ( -0.000000000000000000, -0.000000000000000000, -1.000000000000000000 ) ) ;
#205 = ORIENTED_EDGE ( 'NONE', *, *, #137, .F. ) ;
#206 = DIRECTION ( 'NONE',  ( 1.000000000000000000, 0.000000000000000000, -0.000000000000000000 ) ) ;
#207 = CLOSED_SHELL ( 'NONE', ( #359, #50, #238, #196, #23, #91, #179, #35, #261, #30 ) ) ;
#208 = CARTESIAN_POINT ( 'NONE',  ( 0.2600000000000001199, 3.580000000000000071, 0.1250000000000000000 ) ) ;
#209 = EDGE_LOOP ( 'NONE', ( #96, #335 ) ) ;
#210 = ORIENTED_EDGE ( 'NONE', *, *, #351, .T. ) ;
#211 = EDGE_LOOP ( 'NONE', ( #8, #340, #43, #49 ) ) ;
#212 = AXIS2_PLACEMENT_3D ( 'NONE', #308, #203, #314 ) ;
#213 = DIRECTION ( 'NONE',  ( -0.000000000000000000, -0.000000000000000000, -1.000000000000000000 ) ) ;
#214 = ORIENTED_EDGE ( 'NONE', *, *, #324, .T. ) ;
#215 = APPLICATION_PROTOCOL_DEFINITION ( 'draft international standard', 'automotive_design', 1998, #75 ) ;
#216 = ORIENTED_EDGE ( 'NONE', *, *, #170, .F. ) ;
#217 = EDGE_LOOP ( 'NONE', ( #232, #352 ) ) ;
#218 = PRESENTATION_LAYER_ASSIGNMENT (  '', '', ( #348 ) ) ;
#219 = DIRECTION ( 'NONE',  ( -0.000000000000000000, -0.000000000000000000, -1.000000000000000000 ) ) ;
#220 =( CONVERSION_BASED_UNIT ( 'INCH', #273 ) LENGTH_UNIT ( ) NAMED_UNIT ( #229 ) );
#221 = PRODUCT ( 'AE054224', 'AE054224', '', ( #108 ) ) ;
#222 = CARTESIAN_POINT ( 'NONE',  ( -5.802782442176788273E-25, -3.580000000000000071, 0.1250000000000000000 ) ) ;
#223 = MECHANICAL_DESIGN_GEOMETRIC_PRESENTATION_REPRESENTATION (  '', ( #175 ), #183 ) ;
#224 = DIMENSIONAL_EXPONENTS ( 1.000000000000000000, 0.000000000000000000, 0.000000000000000000, 0.000000000000000000, 0.000000000000000000, 0.000000000000000000, 0.000000000000000000 ) ;
#225 = EDGE_CURVE ( 'NONE', #40, #131, #267, .T. ) ;
#226 = FACE_BOUND ( 'NONE', #209, .T. ) ;
#227 = CARTESIAN_POINT ( 'NONE',  ( 0.000000000000000000, 3.580000000000000071, -0.1250000000000000000 ) ) ;
#228 = EDGE_LOOP ( 'NONE', ( #154, #350, #10, #14 ) ) ;
#229 = DIMENSIONAL_EXPONENTS ( 1.000000000000000000, 0.000000000000000000, 0.000000000000000000, 0.000000000000000000, 0.000000000000000000, 0.000000000000000000, 0.000000000000000000 ) ;
#230 = CIRCLE ( 'NONE', #76, 0.4999999999999999445 ) ;
#231 = LINE ( 'NONE', #71, #189 ) ;
#232 = ORIENTED_EDGE ( 'NONE', *, *, #301, .T. ) ;
#233 = FACE_BOUND ( 'NONE', #166, .T. ) ;
#234 = CYLINDRICAL_SURFACE ( 'NONE', #279, 0.2600000000000001199 ) ;
#235 = VECTOR ( 'NONE', #147, 39.37007874015748143 ) ;
#236 =( CONVERSION_BASED_UNIT ( 'INCH', #322 ) LENGTH_UNIT ( ) NAMED_UNIT ( #224 ) );
#237 = ORIENTED_EDGE ( 'NONE', *, *, #249, .F. ) ;
#238 = ADVANCED_FACE ( 'NONE', ( #226, #257, #233 ), #120, .T. ) ;
#239 = ORIENTED_EDGE ( 'NONE', *, *, #187, .F. ) ;
#240 = DIRECTION ( 'NONE',  ( 1.240014801593415687E-16, -1.000000000000000000, 0.000000000000000000 ) ) ;
#241 = COLOUR_RGB ( '',0.5294117647058823595, 0.5490196078431373028, 0.5490196078431373028 ) ;
#242 = EDGE_LOOP ( 'NONE', ( #102, #162, #126, #285 ) ) ;
#243 = VERTEX_POINT ( 'NONE', #318 ) ;
#244 = CARTESIAN_POINT ( 'NONE',  ( 0.2600000000000001199, -3.580000000000000071, -0.1250000000000000000 ) ) ;
#245 = VECTOR ( 'NONE', #111, 39.37007874015748143 ) ;
#246 = LINE ( 'NONE', #275, #245 ) ;
#247 = LINE ( 'NONE', #141, #13 ) ;
#248 = DIRECTION ( 'NONE',  ( 1.000000000000000000, 0.000000000000000000, 0.000000000000000000 ) ) ;
#249 = EDGE_CURVE ( 'NONE', #131, #40, #159, .T. ) ;
#250 = LINE ( 'NONE', #202, #235 ) ;
#251 = CARTESIAN_POINT ( 'NONE',  ( -5.802782442176788273E-25, -3.580000000000000071, -0.1250000000000000000 ) ) ;
#252 = DIRECTION ( 'NONE',  ( 0.000000000000000000, 0.000000000000000000, 1.000000000000000000 ) ) ;
#253 = VERTEX_POINT ( 'NONE', #11 ) ;
#254 = AXIS2_PLACEMENT_3D ( 'NONE', #51, #213, #80 ) ;
#255 = DIRECTION ( 'NONE',  ( 0.000000000000000000, 0.000000000000000000, 1.000000000000000000 ) ) ;
#256 = EDGE_LOOP ( 'NONE', ( #79, #265 ) ) ;
#257 = FACE_OUTER_BOUND ( 'NONE', #211, .T. ) ;
#258 = ORIENTED_EDGE ( 'NONE', *, *, #59, .T. ) ;
#259 =( NAMED_UNIT ( * ) SI_UNIT ( $, .STERADIAN. ) SOLID_ANGLE_UNIT ( ) );
#260 = VERTEX_POINT ( 'NONE', #92 ) ;
#261 = ADVANCED_FACE ( 'NONE', ( #127 ), #234, .F. ) ;
#262 = CIRCLE ( 'NONE', #112, 0.4999999999999999445 ) ;
#263 = AXIS2_PLACEMENT_3D ( 'NONE', #264, #12, #20 ) ;
#264 = CARTESIAN_POINT ( 'NONE',  ( 0.000000000000000000, 0.000000000000000000, 0.000000000000000000 ) ) ;
#265 = ORIENTED_EDGE ( 'NONE', *, *, #249, .T. ) ;
#266 = EDGE_LOOP ( 'NONE', ( #313, #282, #107, #172 ) ) ;
#267 = CIRCLE ( 'NONE', #117, 0.2600000000000001199 ) ;
#268 = CYLINDRICAL_SURFACE ( 'NONE', #272, 0.2600000000000001199 ) ;
#269 = ORIENTED_EDGE ( 'NONE', *, *, #161, .F. ) ;
#270 = EDGE_CURVE ( 'NONE', #294, #178, #143, .T. ) ;
#271 =( NAMED_UNIT ( * ) SI_UNIT ( $, .STERADIAN. ) SOLID_ANGLE_UNIT ( ) );
#272 = AXIS2_PLACEMENT_3D ( 'NONE', #296, #46, #52 ) ;
#273 = LENGTH_MEASURE_WITH_UNIT ( LENGTH_MEASURE( 0.02539999999999999897 ), #278 );
#274 = APPLICATION_CONTEXT ( 'automotive_design' ) ;
#275 = CARTESIAN_POINT ( 'NONE',  ( -0.2600000000000001199, 3.580000000000000071, 0.1250000000000000000 ) ) ;
#276 = VERTEX_POINT ( 'NONE', #208 ) ;
#277 = FILL_AREA_STYLE_COLOUR ( '', #338 ) ;
#278 =( LENGTH_UNIT ( ) NAMED_UNIT ( * ) SI_UNIT ( $, .METRE. ) );
#279 = AXIS2_PLACEMENT_3D ( 'NONE', #281, #121, #37 ) ;
#280 = CARTESIAN_POINT ( 'NONE',  ( -5.802782442176788273E-25, -3.580000000000000071, -0.1250000000000000000 ) ) ;
#281 = CARTESIAN_POINT ( 'NONE',  ( -5.802782442176788273E-25, -3.580000000000000071, 0.1250000000000000000 ) ) ;
#282 = ORIENTED_EDGE ( 'NONE', *, *, #194, .F. ) ;
#283 = EDGE_CURVE ( 'NONE', #152, #319, #231, .T. ) ;
#284 = CARTESIAN_POINT ( 'NONE',  ( 0.000000000000000000, 3.580000000000000071, 0.1250000000000000000 ) ) ;
#285 = ORIENTED_EDGE ( 'NONE', *, *, #133, .F. ) ;
#286 = VECTOR ( 'NONE', #312, 39.37007874015748143 ) ;
#287 = LINE ( 'NONE', #39, #286 ) ;
#288 = UNCERTAINTY_MEASURE_WITH_UNIT (LENGTH_MEASURE( 1.000000000000000082E-05 ), #220, 'distance_accuracy_value', 'NONE');
#289 = CARTESIAN_POINT ( 'NONE',  ( 0.4999999999999991118, 3.580000000000000071, -0.1250000000000000000 ) ) ;
#290 = ORIENTED_EDGE ( 'NONE', *, *, #351, .F. ) ;
#291 =( NAMED_UNIT ( * ) PLANE_ANGLE_UNIT ( ) SI_UNIT ( $, .RADIAN. ) );
#292 = EDGE_LOOP ( 'NONE', ( #38, #269, #344, #21 ) ) ;
#293 = VECTOR ( 'NONE', #58, 39.37007874015748143 ) ;
#294 = VERTEX_POINT ( 'NONE', #289 ) ;
#295 =( NAMED_UNIT ( * ) SI_UNIT ( $, .STERADIAN. ) SOLID_ANGLE_UNIT ( ) );
#296 = CARTESIAN_POINT ( 'NONE',  ( 0.000000000000000000, 3.580000000000000071, 0.1250000000000000000 ) ) ;
#297 = DIRECTION ( 'NONE',  ( -0.000000000000000000, -0.000000000000000000, -1.000000000000000000 ) ) ;
#298 = VECTOR ( 'NONE', #204, 39.37007874015748143 ) ;
#299 = CIRCLE ( 'NONE', #144, 0.2600000000000001199 ) ;
#300 = PLANE ( 'NONE',  #118 ) ;
#301 = EDGE_CURVE ( 'NONE', #73, #122, #315, .T. ) ;
#302 = LINE ( 'NONE', #361, #90 ) ;
#303 = VECTOR ( 'NONE', #353, 39.37007874015748143 ) ;
#304 = PRODUCT_DEFINITION_FORMATION_WITH_SPECIFIED_SOURCE ( 'ANY', '', #221, .NOT_KNOWN. ) ;
#305 = EDGE_CURVE ( 'NONE', #325, #73, #94, .T. ) ;
#306 = SURFACE_STYLE_FILL_AREA ( #114 ) ;
#307 = EDGE_CURVE ( 'NONE', #260, #325, #28, .T. ) ;
#308 = CARTESIAN_POINT ( 'NONE',  ( 0.000000000000000000, 3.580000000000000071, -0.1250000000000000000 ) ) ;
#309 = ORIENTED_EDGE ( 'NONE', *, *, #72, .F. ) ;
#310 = DIRECTION ( 'NONE',  ( -0.000000000000000000, -0.000000000000000000, -1.000000000000000000 ) ) ;
#311 = DIMENSIONAL_EXPONENTS ( 1.000000000000000000, 0.000000000000000000, 0.000000000000000000, 0.000000000000000000, 0.000000000000000000, 0.000000000000000000, 0.000000000000000000 ) ;
#312 = DIRECTION ( 'NONE',  ( -1.240014801593415687E-16, 1.000000000000000000, 0.000000000000000000 ) ) ;
#313 = ORIENTED_EDGE ( 'NONE', *, *, #174, .T. ) ;
#314 = DIRECTION ( 'NONE',  ( 1.000000000000000000, 0.000000000000000000, 0.000000000000000000 ) ) ;
#315 = CIRCLE ( 'NONE', #36, 0.2600000000000001199 ) ;
#316 = EDGE_CURVE ( 'NONE', #253, #178, #88, .T. ) ;
#317 = VECTOR ( 'NONE', #180, 39.37007874015748143 ) ;
#318 = CARTESIAN_POINT ( 'NONE',  ( -0.4999999999999998335, -3.580000000000000071, -0.1250000000000000000 ) ) ;
#319 = VERTEX_POINT ( 'NONE', #337 ) ;
#320 = LINE ( 'NONE', #18, #317 ) ;
#321 = CARTESIAN_POINT ( 'NONE',  ( 0.000000000000000000, 3.580000000000000071, 0.1250000000000000000 ) ) ;
#322 = LENGTH_MEASURE_WITH_UNIT ( LENGTH_MEASURE( 0.02539999999999999897 ), #181 );
#323 = CYLINDRICAL_SURFACE ( 'NONE', #130, 0.4999999999999999445 ) ;
#324 = EDGE_CURVE ( 'NONE', #260, #122, #250, .T. ) ;
#325 = VERTEX_POINT ( 'NONE', #169 ) ;
#326 = FACE_OUTER_BOUND ( 'NONE', #182, .T. ) ;
#327 = EDGE_CURVE ( 'NONE', #243, #319, #332, .T. ) ;
#328 = AXIS2_PLACEMENT_3D ( 'NONE', #104, #190, #22 ) ;
#329 = CARTESIAN_POINT ( 'NONE',  ( -0.2600000000000001199, -3.580000000000000071, -0.1250000000000000000 ) ) ;
#330 = CARTESIAN_POINT ( 'NONE',  ( -5.802782442176788273E-25, -3.580000000000000071, -0.1250000000000000000 ) ) ;
#331 = DIRECTION ( 'NONE',  ( 0.000000000000000000, 0.000000000000000000, 1.000000000000000000 ) ) ;
#332 = CIRCLE ( 'NONE', #106, 0.4999999999999999445 ) ;
#333 = DIRECTION ( 'NONE',  ( -1.240014801593415687E-16, 1.000000000000000000, 0.000000000000000000 ) ) ;
#334 = DIRECTION ( 'NONE',  ( 1.000000000000000000, 0.000000000000000000, 0.000000000000000000 ) ) ;
#335 = ORIENTED_EDGE ( 'NONE', *, *, #307, .F. ) ;
#336 = PRODUCT_RELATED_PRODUCT_CATEGORY ( 'part', '', ( #221 ) ) ;
#337 = CARTESIAN_POINT ( 'NONE',  ( 0.4999999999999999445, -3.580000000000000071, -0.1250000000000000000 ) ) ;
#338 = COLOUR_RGB ( '',0.5294117647058823595, 0.5490196078431373028, 0.5490196078431373028 ) ;
#339 = DIRECTION ( 'NONE',  ( 0.000000000000000000, 0.000000000000000000, 1.000000000000000000 ) ) ;
#340 = ORIENTED_EDGE ( 'NONE', *, *, #362, .T. ) ;
#341 = DIRECTION ( 'NONE',  ( 1.000000000000000000, 0.000000000000000000, 0.000000000000000000 ) ) ;
#342 = EDGE_LOOP ( 'NONE', ( #210, #87, #26, #205 ) ) ;
#343 = CARTESIAN_POINT ( 'NONE',  ( -0.5000000000000007772, 3.580000000000000071, 0.1250000000000000000 ) ) ;
#344 = ORIENTED_EDGE ( 'NONE', *, *, #327, .F. ) ;
#345 = FACE_OUTER_BOUND ( 'NONE', #292, .T. ) ;
#346 = ORIENTED_EDGE ( 'NONE', *, *, #316, .F. ) ;
#347 = AXIS2_PLACEMENT_3D ( 'NONE', #99, #173, #177 ) ;
#348 = STYLED_ITEM ( 'NONE', ( #115 ), #158 ) ;
#349 = CARTESIAN_POINT ( 'NONE',  ( -0.5000000000000007772, 3.580000000000000071, 0.1250000000000000000 ) ) ;
#350 = ORIENTED_EDGE ( 'NONE', *, *, #42, .F. ) ;
#351 = EDGE_CURVE ( 'NONE', #153, #276, #6, .T. ) ;
#352 = ORIENTED_EDGE ( 'NONE', *, *, #133, .T. ) ;
#353 = DIRECTION ( 'NONE',  ( 1.240014801593415687E-16, -1.000000000000000000, 0.000000000000000000 ) ) ;
#354 = ORIENTED_EDGE ( 'NONE', *, *, #194, .T. ) ;
#355 = FACE_OUTER_BOUND ( 'NONE', #342, .T. ) ;
#356 = VERTEX_POINT ( 'NONE', #95 ) ;
#357 = SURFACE_STYLE_FILL_AREA ( #184 ) ;
#358 = FACE_OUTER_BOUND ( 'NONE', #228, .T. ) ;
#359 = ADVANCED_FACE ( 'NONE', ( #355 ), #186, .F. ) ;
#360 = CARTESIAN_POINT ( 'NONE',  ( -5.802782442176788273E-25, -3.580000000000000071, 0.1250000000000000000 ) ) ;
#361 = CARTESIAN_POINT ( 'NONE',  ( 0.5000000000000000000, -3.580000000000000071, -0.1250000000000000000 ) ) ;
#362 = EDGE_CURVE ( 'NONE', #253, #356, #41, .T. ) ;
#363 = CARTESIAN_POINT ( 'NONE',  ( -0.4999999999999998335, -3.580000000000000071, 0.1250000000000000000 ) ) ;
ENDSEC;
END-ISO-10303-21;
