ISO-10303-21;
HEADER;
/* Generated by software containing ST-Developer
 * from STEP Tools, Inc. (www.steptools.com) 
 */

FILE_DESCRIPTION(
/* description */ (''),
/* implementation_level */ '2;1');

FILE_NAME(
/* name */ 'Equerre_renforce v4.step',
/* time_stamp */ '2024-09-29T10:33:26+02:00',
/* author */ (''),
/* organization */ (''),
/* preprocessor_version */ 'ST-DEVELOPER v20',
/* originating_system */ 'Autodesk Translation Framework v13.20.0.188',

/* authorisation */ '');

FILE_SCHEMA (('AUTOMOTIVE_DESIGN { 1 0 10303 214 3 1 1 }'));
ENDSEC;

DATA;
#10=MECHANICAL_DESIGN_GEOMETRIC_PRESENTATION_REPRESENTATION('',(#13),#531);
#11=SHAPE_REPRESENTATION_RELATIONSHIP('SRR','None',#538,#12);
#12=ADVANCED_BREP_SHAPE_REPRESENTATION('',(#14),#530);
#13=STYLED_ITEM('',(#547),#14);
#14=MANIFOLD_SOLID_BREP('Corps1',#317);
#15=FACE_BOUND('',#60,.T.);
#16=FACE_BOUND('',#61,.T.);
#17=FACE_BOUND('',#62,.T.);
#18=FACE_BOUND('',#63,.T.);
#19=FACE_BOUND('',#65,.T.);
#20=FACE_BOUND('',#66,.T.);
#21=FACE_BOUND('',#73,.T.);
#22=FACE_BOUND('',#74,.T.);
#23=FACE_BOUND('',#75,.T.);
#24=FACE_BOUND('',#76,.T.);
#25=FACE_BOUND('',#78,.T.);
#26=FACE_BOUND('',#79,.T.);
#27=PLANE('',#349);
#28=PLANE('',#350);
#29=PLANE('',#351);
#30=PLANE('',#352);
#31=PLANE('',#353);
#32=PLANE('',#354);
#33=PLANE('',#355);
#34=PLANE('',#356);
#35=PLANE('',#357);
#36=PLANE('',#358);
#37=FACE_OUTER_BOUND('',#53,.T.);
#38=FACE_OUTER_BOUND('',#54,.T.);
#39=FACE_OUTER_BOUND('',#55,.T.);
#40=FACE_OUTER_BOUND('',#56,.T.);
#41=FACE_OUTER_BOUND('',#57,.T.);
#42=FACE_OUTER_BOUND('',#58,.T.);
#43=FACE_OUTER_BOUND('',#59,.T.);
#44=FACE_OUTER_BOUND('',#64,.T.);
#45=FACE_OUTER_BOUND('',#67,.T.);
#46=FACE_OUTER_BOUND('',#68,.T.);
#47=FACE_OUTER_BOUND('',#69,.T.);
#48=FACE_OUTER_BOUND('',#70,.T.);
#49=FACE_OUTER_BOUND('',#71,.T.);
#50=FACE_OUTER_BOUND('',#72,.T.);
#51=FACE_OUTER_BOUND('',#77,.T.);
#52=FACE_OUTER_BOUND('',#80,.T.);
#53=EDGE_LOOP('',(#215,#216,#217,#218));
#54=EDGE_LOOP('',(#219,#220,#221,#222));
#55=EDGE_LOOP('',(#223,#224,#225,#226));
#56=EDGE_LOOP('',(#227,#228,#229,#230));
#57=EDGE_LOOP('',(#231,#232,#233,#234));
#58=EDGE_LOOP('',(#235,#236,#237,#238));
#59=EDGE_LOOP('',(#239,#240,#241,#242));
#60=EDGE_LOOP('',(#243));
#61=EDGE_LOOP('',(#244));
#62=EDGE_LOOP('',(#245));
#63=EDGE_LOOP('',(#246));
#64=EDGE_LOOP('',(#247,#248,#249,#250));
#65=EDGE_LOOP('',(#251));
#66=EDGE_LOOP('',(#252));
#67=EDGE_LOOP('',(#253,#254,#255));
#68=EDGE_LOOP('',(#256,#257,#258,#259,#260,#261));
#69=EDGE_LOOP('',(#262,#263,#264,#265,#266));
#70=EDGE_LOOP('',(#267,#268,#269,#270));
#71=EDGE_LOOP('',(#271,#272,#273,#274,#275));
#72=EDGE_LOOP('',(#276,#277,#278,#279));
#73=EDGE_LOOP('',(#280));
#74=EDGE_LOOP('',(#281));
#75=EDGE_LOOP('',(#282));
#76=EDGE_LOOP('',(#283));
#77=EDGE_LOOP('',(#284,#285,#286,#287));
#78=EDGE_LOOP('',(#288));
#79=EDGE_LOOP('',(#289));
#80=EDGE_LOOP('',(#290,#291,#292,#293,#294));
#81=LINE('',#450,#109);
#82=LINE('',#456,#110);
#83=LINE('',#462,#111);
#84=LINE('',#468,#112);
#85=LINE('',#474,#113);
#86=LINE('',#480,#114);
#87=LINE('',#485,#115);
#88=LINE('',#487,#116);
#89=LINE('',#489,#117);
#90=LINE('',#490,#118);
#91=LINE('',#493,#119);
#92=LINE('',#495,#120);
#93=LINE('',#496,#121);
#94=LINE('',#498,#122);
#95=LINE('',#501,#123);
#96=LINE('',#503,#124);
#97=LINE('',#505,#125);
#98=LINE('',#506,#126);
#99=LINE('',#510,#127);
#100=LINE('',#511,#128);
#101=LINE('',#512,#129);
#102=LINE('',#515,#130);
#103=LINE('',#516,#131);
#104=LINE('',#519,#132);
#105=LINE('',#520,#133);
#106=LINE('',#523,#134);
#107=LINE('',#524,#135);
#108=LINE('',#526,#136);
#109=VECTOR('',#365,2.75);
#110=VECTOR('',#372,2.75);
#111=VECTOR('',#379,2.75);
#112=VECTOR('',#386,2.75);
#113=VECTOR('',#393,4.);
#114=VECTOR('',#400,4.);
#115=VECTOR('',#405,10.);
#116=VECTOR('',#406,10.);
#117=VECTOR('',#407,10.);
#118=VECTOR('',#408,10.);
#119=VECTOR('',#411,10.);
#120=VECTOR('',#412,10.);
#121=VECTOR('',#413,10.);
#122=VECTOR('',#416,10.);
#123=VECTOR('',#419,10.);
#124=VECTOR('',#420,10.);
#125=VECTOR('',#421,10.);
#126=VECTOR('',#422,10.);
#127=VECTOR('',#425,10.);
#128=VECTOR('',#426,10.);
#129=VECTOR('',#427,10.);
#130=VECTOR('',#430,10.);
#131=VECTOR('',#431,10.);
#132=VECTOR('',#434,10.);
#133=VECTOR('',#435,10.);
#134=VECTOR('',#438,10.);
#135=VECTOR('',#439,10.);
#136=VECTOR('',#442,10.);
#137=CIRCLE('',#332,2.75);
#138=CIRCLE('',#333,2.75);
#139=CIRCLE('',#335,2.75);
#140=CIRCLE('',#336,2.75);
#141=CIRCLE('',#338,2.75);
#142=CIRCLE('',#339,2.75);
#143=CIRCLE('',#341,2.75);
#144=CIRCLE('',#342,2.75);
#145=CIRCLE('',#344,4.);
#146=CIRCLE('',#345,4.);
#147=CIRCLE('',#347,4.);
#148=CIRCLE('',#348,4.);
#149=VERTEX_POINT('',#447);
#150=VERTEX_POINT('',#449);
#151=VERTEX_POINT('',#453);
#152=VERTEX_POINT('',#455);
#153=VERTEX_POINT('',#459);
#154=VERTEX_POINT('',#461);
#155=VERTEX_POINT('',#465);
#156=VERTEX_POINT('',#467);
#157=VERTEX_POINT('',#471);
#158=VERTEX_POINT('',#473);
#159=VERTEX_POINT('',#477);
#160=VERTEX_POINT('',#479);
#161=VERTEX_POINT('',#483);
#162=VERTEX_POINT('',#484);
#163=VERTEX_POINT('',#486);
#164=VERTEX_POINT('',#488);
#165=VERTEX_POINT('',#492);
#166=VERTEX_POINT('',#494);
#167=VERTEX_POINT('',#500);
#168=VERTEX_POINT('',#502);
#169=VERTEX_POINT('',#504);
#170=VERTEX_POINT('',#508);
#171=VERTEX_POINT('',#509);
#172=VERTEX_POINT('',#514);
#173=VERTEX_POINT('',#518);
#174=VERTEX_POINT('',#522);
#175=EDGE_CURVE('',#149,#149,#137,.T.);
#176=EDGE_CURVE('',#149,#150,#81,.T.);
#177=EDGE_CURVE('',#150,#150,#138,.T.);
#178=EDGE_CURVE('',#151,#151,#139,.T.);
#179=EDGE_CURVE('',#151,#152,#82,.T.);
#180=EDGE_CURVE('',#152,#152,#140,.T.);
#181=EDGE_CURVE('',#153,#153,#141,.T.);
#182=EDGE_CURVE('',#153,#154,#83,.T.);
#183=EDGE_CURVE('',#154,#154,#142,.T.);
#184=EDGE_CURVE('',#155,#155,#143,.T.);
#185=EDGE_CURVE('',#155,#156,#84,.T.);
#186=EDGE_CURVE('',#156,#156,#144,.T.);
#187=EDGE_CURVE('',#157,#157,#145,.T.);
#188=EDGE_CURVE('',#157,#158,#85,.T.);
#189=EDGE_CURVE('',#158,#158,#146,.T.);
#190=EDGE_CURVE('',#159,#159,#147,.T.);
#191=EDGE_CURVE('',#159,#160,#86,.T.);
#192=EDGE_CURVE('',#160,#160,#148,.T.);
#193=EDGE_CURVE('',#161,#162,#87,.T.);
#194=EDGE_CURVE('',#163,#161,#88,.T.);
#195=EDGE_CURVE('',#163,#164,#89,.T.);
#196=EDGE_CURVE('',#162,#164,#90,.T.);
#197=EDGE_CURVE('',#162,#165,#91,.T.);
#198=EDGE_CURVE('',#164,#166,#92,.T.);
#199=EDGE_CURVE('',#166,#165,#93,.T.);
#200=EDGE_CURVE('',#166,#163,#94,.T.);
#201=EDGE_CURVE('',#165,#167,#95,.T.);
#202=EDGE_CURVE('',#167,#168,#96,.T.);
#203=EDGE_CURVE('',#168,#169,#97,.T.);
#204=EDGE_CURVE('',#169,#161,#98,.T.);
#205=EDGE_CURVE('',#170,#171,#99,.T.);
#206=EDGE_CURVE('',#170,#167,#100,.T.);
#207=EDGE_CURVE('',#171,#166,#101,.T.);
#208=EDGE_CURVE('',#172,#163,#102,.T.);
#209=EDGE_CURVE('',#172,#171,#103,.T.);
#210=EDGE_CURVE('',#173,#172,#104,.T.);
#211=EDGE_CURVE('',#173,#169,#105,.T.);
#212=EDGE_CURVE('',#174,#173,#106,.T.);
#213=EDGE_CURVE('',#174,#168,#107,.T.);
#214=EDGE_CURVE('',#174,#170,#108,.T.);
#215=ORIENTED_EDGE('',*,*,#175,.F.);
#216=ORIENTED_EDGE('',*,*,#176,.T.);
#217=ORIENTED_EDGE('',*,*,#177,.F.);
#218=ORIENTED_EDGE('',*,*,#176,.F.);
#219=ORIENTED_EDGE('',*,*,#178,.F.);
#220=ORIENTED_EDGE('',*,*,#179,.T.);
#221=ORIENTED_EDGE('',*,*,#180,.F.);
#222=ORIENTED_EDGE('',*,*,#179,.F.);
#223=ORIENTED_EDGE('',*,*,#181,.F.);
#224=ORIENTED_EDGE('',*,*,#182,.T.);
#225=ORIENTED_EDGE('',*,*,#183,.F.);
#226=ORIENTED_EDGE('',*,*,#182,.F.);
#227=ORIENTED_EDGE('',*,*,#184,.F.);
#228=ORIENTED_EDGE('',*,*,#185,.T.);
#229=ORIENTED_EDGE('',*,*,#186,.F.);
#230=ORIENTED_EDGE('',*,*,#185,.F.);
#231=ORIENTED_EDGE('',*,*,#187,.F.);
#232=ORIENTED_EDGE('',*,*,#188,.T.);
#233=ORIENTED_EDGE('',*,*,#189,.F.);
#234=ORIENTED_EDGE('',*,*,#188,.F.);
#235=ORIENTED_EDGE('',*,*,#190,.F.);
#236=ORIENTED_EDGE('',*,*,#191,.T.);
#237=ORIENTED_EDGE('',*,*,#192,.F.);
#238=ORIENTED_EDGE('',*,*,#191,.F.);
#239=ORIENTED_EDGE('',*,*,#193,.F.);
#240=ORIENTED_EDGE('',*,*,#194,.F.);
#241=ORIENTED_EDGE('',*,*,#195,.T.);
#242=ORIENTED_EDGE('',*,*,#196,.F.);
#243=ORIENTED_EDGE('',*,*,#177,.T.);
#244=ORIENTED_EDGE('',*,*,#180,.T.);
#245=ORIENTED_EDGE('',*,*,#183,.T.);
#246=ORIENTED_EDGE('',*,*,#186,.T.);
#247=ORIENTED_EDGE('',*,*,#197,.F.);
#248=ORIENTED_EDGE('',*,*,#196,.T.);
#249=ORIENTED_EDGE('',*,*,#198,.T.);
#250=ORIENTED_EDGE('',*,*,#199,.T.);
#251=ORIENTED_EDGE('',*,*,#187,.T.);
#252=ORIENTED_EDGE('',*,*,#190,.T.);
#253=ORIENTED_EDGE('',*,*,#198,.F.);
#254=ORIENTED_EDGE('',*,*,#195,.F.);
#255=ORIENTED_EDGE('',*,*,#200,.F.);
#256=ORIENTED_EDGE('',*,*,#193,.T.);
#257=ORIENTED_EDGE('',*,*,#197,.T.);
#258=ORIENTED_EDGE('',*,*,#201,.T.);
#259=ORIENTED_EDGE('',*,*,#202,.T.);
#260=ORIENTED_EDGE('',*,*,#203,.T.);
#261=ORIENTED_EDGE('',*,*,#204,.T.);
#262=ORIENTED_EDGE('',*,*,#205,.F.);
#263=ORIENTED_EDGE('',*,*,#206,.T.);
#264=ORIENTED_EDGE('',*,*,#201,.F.);
#265=ORIENTED_EDGE('',*,*,#199,.F.);
#266=ORIENTED_EDGE('',*,*,#207,.F.);
#267=ORIENTED_EDGE('',*,*,#200,.T.);
#268=ORIENTED_EDGE('',*,*,#208,.F.);
#269=ORIENTED_EDGE('',*,*,#209,.T.);
#270=ORIENTED_EDGE('',*,*,#207,.T.);
#271=ORIENTED_EDGE('',*,*,#210,.T.);
#272=ORIENTED_EDGE('',*,*,#208,.T.);
#273=ORIENTED_EDGE('',*,*,#194,.T.);
#274=ORIENTED_EDGE('',*,*,#204,.F.);
#275=ORIENTED_EDGE('',*,*,#211,.F.);
#276=ORIENTED_EDGE('',*,*,#212,.T.);
#277=ORIENTED_EDGE('',*,*,#211,.T.);
#278=ORIENTED_EDGE('',*,*,#203,.F.);
#279=ORIENTED_EDGE('',*,*,#213,.F.);
#280=ORIENTED_EDGE('',*,*,#175,.T.);
#281=ORIENTED_EDGE('',*,*,#178,.T.);
#282=ORIENTED_EDGE('',*,*,#181,.T.);
#283=ORIENTED_EDGE('',*,*,#184,.T.);
#284=ORIENTED_EDGE('',*,*,#214,.F.);
#285=ORIENTED_EDGE('',*,*,#213,.T.);
#286=ORIENTED_EDGE('',*,*,#202,.F.);
#287=ORIENTED_EDGE('',*,*,#206,.F.);
#288=ORIENTED_EDGE('',*,*,#189,.T.);
#289=ORIENTED_EDGE('',*,*,#192,.T.);
#290=ORIENTED_EDGE('',*,*,#214,.T.);
#291=ORIENTED_EDGE('',*,*,#205,.T.);
#292=ORIENTED_EDGE('',*,*,#209,.F.);
#293=ORIENTED_EDGE('',*,*,#210,.F.);
#294=ORIENTED_EDGE('',*,*,#212,.F.);
#295=CYLINDRICAL_SURFACE('',#331,2.75);
#296=CYLINDRICAL_SURFACE('',#334,2.75);
#297=CYLINDRICAL_SURFACE('',#337,2.75);
#298=CYLINDRICAL_SURFACE('',#340,2.75);
#299=CYLINDRICAL_SURFACE('',#343,4.);
#300=CYLINDRICAL_SURFACE('',#346,4.);
#301=ADVANCED_FACE('',(#37),#295,.F.);
#302=ADVANCED_FACE('',(#38),#296,.F.);
#303=ADVANCED_FACE('',(#39),#297,.F.);
#304=ADVANCED_FACE('',(#40),#298,.F.);
#305=ADVANCED_FACE('',(#41),#299,.F.);
#306=ADVANCED_FACE('',(#42),#300,.F.);
#307=ADVANCED_FACE('',(#43,#15,#16,#17,#18),#27,.F.);
#308=ADVANCED_FACE('',(#44,#19,#20),#28,.F.);
#309=ADVANCED_FACE('',(#45),#29,.F.);
#310=ADVANCED_FACE('',(#46),#30,.T.);
#311=ADVANCED_FACE('',(#47),#31,.T.);
#312=ADVANCED_FACE('',(#48),#32,.T.);
#313=ADVANCED_FACE('',(#49),#33,.T.);
#314=ADVANCED_FACE('',(#50,#21,#22,#23,#24),#34,.T.);
#315=ADVANCED_FACE('',(#51,#25,#26),#35,.T.);
#316=ADVANCED_FACE('',(#52),#36,.T.);
#317=CLOSED_SHELL('',(#301,#302,#303,#304,#305,#306,#307,#308,#309,#310,
#311,#312,#313,#314,#315,#316));
#318=DERIVED_UNIT_ELEMENT(#320,1.);
#319=DERIVED_UNIT_ELEMENT(#533,-3.);
#320=(
MASS_UNIT()
NAMED_UNIT(*)
SI_UNIT(.KILO.,.GRAM.)
);
#321=DERIVED_UNIT((#318,#319));
#322=MEASURE_REPRESENTATION_ITEM('density measure',
POSITIVE_RATIO_MEASURE(7850.),#321);
#323=PROPERTY_DEFINITION_REPRESENTATION(#328,#325);
#324=PROPERTY_DEFINITION_REPRESENTATION(#329,#326);
#325=REPRESENTATION('material name',(#327),#530);
#326=REPRESENTATION('density',(#322),#530);
#327=DESCRIPTIVE_REPRESENTATION_ITEM('Acier','Acier');
#328=PROPERTY_DEFINITION('material property','material name',#540);
#329=PROPERTY_DEFINITION('material property','density of part',#540);
#330=AXIS2_PLACEMENT_3D('',#445,#359,#360);
#331=AXIS2_PLACEMENT_3D('',#446,#361,#362);
#332=AXIS2_PLACEMENT_3D('',#448,#363,#364);
#333=AXIS2_PLACEMENT_3D('',#451,#366,#367);
#334=AXIS2_PLACEMENT_3D('',#452,#368,#369);
#335=AXIS2_PLACEMENT_3D('',#454,#370,#371);
#336=AXIS2_PLACEMENT_3D('',#457,#373,#374);
#337=AXIS2_PLACEMENT_3D('',#458,#375,#376);
#338=AXIS2_PLACEMENT_3D('',#460,#377,#378);
#339=AXIS2_PLACEMENT_3D('',#463,#380,#381);
#340=AXIS2_PLACEMENT_3D('',#464,#382,#383);
#341=AXIS2_PLACEMENT_3D('',#466,#384,#385);
#342=AXIS2_PLACEMENT_3D('',#469,#387,#388);
#343=AXIS2_PLACEMENT_3D('',#470,#389,#390);
#344=AXIS2_PLACEMENT_3D('',#472,#391,#392);
#345=AXIS2_PLACEMENT_3D('',#475,#394,#395);
#346=AXIS2_PLACEMENT_3D('',#476,#396,#397);
#347=AXIS2_PLACEMENT_3D('',#478,#398,#399);
#348=AXIS2_PLACEMENT_3D('',#481,#401,#402);
#349=AXIS2_PLACEMENT_3D('',#482,#403,#404);
#350=AXIS2_PLACEMENT_3D('',#491,#409,#410);
#351=AXIS2_PLACEMENT_3D('',#497,#414,#415);
#352=AXIS2_PLACEMENT_3D('',#499,#417,#418);
#353=AXIS2_PLACEMENT_3D('',#507,#423,#424);
#354=AXIS2_PLACEMENT_3D('',#513,#428,#429);
#355=AXIS2_PLACEMENT_3D('',#517,#432,#433);
#356=AXIS2_PLACEMENT_3D('',#521,#436,#437);
#357=AXIS2_PLACEMENT_3D('',#525,#440,#441);
#358=AXIS2_PLACEMENT_3D('',#527,#443,#444);
#359=DIRECTION('axis',(0.,0.,1.));
#360=DIRECTION('refdir',(1.,0.,0.));
#361=DIRECTION('center_axis',(0.,0.,1.));
#362=DIRECTION('ref_axis',(1.,0.,0.));
#363=DIRECTION('center_axis',(-2.39671281968189E-33,0.,1.));
#364=DIRECTION('ref_axis',(1.,0.,0.));
#365=DIRECTION('',(0.,0.,1.));
#366=DIRECTION('center_axis',(-6.76965258917778E-17,0.,-1.));
#367=DIRECTION('ref_axis',(1.,0.,0.));
#368=DIRECTION('center_axis',(0.,0.,1.));
#369=DIRECTION('ref_axis',(1.,0.,0.));
#370=DIRECTION('center_axis',(-2.39671281968189E-33,0.,1.));
#371=DIRECTION('ref_axis',(1.,0.,0.));
#372=DIRECTION('',(0.,0.,1.));
#373=DIRECTION('center_axis',(-6.76965258917778E-17,0.,-1.));
#374=DIRECTION('ref_axis',(1.,0.,0.));
#375=DIRECTION('center_axis',(0.,0.,1.));
#376=DIRECTION('ref_axis',(1.,0.,0.));
#377=DIRECTION('center_axis',(-2.39671281968189E-33,0.,1.));
#378=DIRECTION('ref_axis',(1.,0.,0.));
#379=DIRECTION('',(0.,0.,1.));
#380=DIRECTION('center_axis',(-6.76965258917778E-17,0.,-1.));
#381=DIRECTION('ref_axis',(1.,0.,0.));
#382=DIRECTION('center_axis',(0.,0.,1.));
#383=DIRECTION('ref_axis',(1.,0.,0.));
#384=DIRECTION('center_axis',(-2.39671281968189E-33,0.,1.));
#385=DIRECTION('ref_axis',(1.,0.,0.));
#386=DIRECTION('',(0.,0.,1.));
#387=DIRECTION('center_axis',(-6.76965258917778E-17,0.,-1.));
#388=DIRECTION('ref_axis',(1.,0.,0.));
#389=DIRECTION('center_axis',(-1.,0.,0.));
#390=DIRECTION('ref_axis',(0.,1.,0.));
#391=DIRECTION('center_axis',(-1.,0.,4.38245930773088E-17));
#392=DIRECTION('ref_axis',(0.,1.,0.));
#393=DIRECTION('',(-1.,0.,0.));
#394=DIRECTION('center_axis',(1.,0.,-6.12323399573676E-17));
#395=DIRECTION('ref_axis',(0.,1.,0.));
#396=DIRECTION('center_axis',(-1.,0.,0.));
#397=DIRECTION('ref_axis',(0.,1.,0.));
#398=DIRECTION('center_axis',(-1.,0.,4.38245930773088E-17));
#399=DIRECTION('ref_axis',(0.,1.,0.));
#400=DIRECTION('',(-1.,0.,0.));
#401=DIRECTION('center_axis',(1.,0.,-6.12323399573676E-17));
#402=DIRECTION('ref_axis',(0.,1.,0.));
#403=DIRECTION('center_axis',(-6.76965258917778E-17,0.,-1.));
#404=DIRECTION('ref_axis',(-1.,0.,6.76965258917778E-17));
#405=DIRECTION('',(-1.,0.,6.76965258917778E-17));
#406=DIRECTION('',(0.,-1.,0.));
#407=DIRECTION('',(-1.,0.,6.76965258917778E-17));
#408=DIRECTION('',(0.,1.,0.));
#409=DIRECTION('center_axis',(-1.,0.,4.38245930773088E-17));
#410=DIRECTION('ref_axis',(4.38245930773088E-17,0.,1.));
#411=DIRECTION('',(4.38245930773088E-17,0.,1.));
#412=DIRECTION('',(4.38245930773088E-17,0.,1.));
#413=DIRECTION('',(0.,-1.,0.));
#414=DIRECTION('center_axis',(0.,1.,0.));
#415=DIRECTION('ref_axis',(0.,0.,1.));
#416=DIRECTION('',(0.474790242570467,0.,-0.880098986228184));
#417=DIRECTION('center_axis',(0.,-1.,0.));
#418=DIRECTION('ref_axis',(0.,0.,-1.));
#419=DIRECTION('',(-1.,0.,0.));
#420=DIRECTION('',(-6.12323399573676E-17,0.,-1.));
#421=DIRECTION('',(1.,0.,2.39671281968189E-33));
#422=DIRECTION('',(0.,0.,1.));
#423=DIRECTION('center_axis',(0.,0.,1.));
#424=DIRECTION('ref_axis',(-1.,0.,0.));
#425=DIRECTION('',(1.,0.,0.));
#426=DIRECTION('',(0.,-1.,0.));
#427=DIRECTION('',(0.,-1.,0.));
#428=DIRECTION('center_axis',(0.880098986228184,0.,0.474790242570468));
#429=DIRECTION('ref_axis',(-0.474790242570467,0.,0.880098986228184));
#430=DIRECTION('',(0.,-1.,0.));
#431=DIRECTION('',(-0.474790242570467,0.,0.880098986228184));
#432=DIRECTION('center_axis',(1.,0.,0.));
#433=DIRECTION('ref_axis',(0.,0.,1.));
#434=DIRECTION('',(0.,0.,1.));
#435=DIRECTION('',(0.,-1.,0.));
#436=DIRECTION('center_axis',(2.39671281968189E-33,0.,-1.));
#437=DIRECTION('ref_axis',(1.,0.,2.39671281968189E-33));
#438=DIRECTION('',(1.,0.,2.39671281968189E-33));
#439=DIRECTION('',(0.,-1.,0.));
#440=DIRECTION('center_axis',(-1.,0.,6.12323399573676E-17));
#441=DIRECTION('ref_axis',(-6.12323399573676E-17,0.,-1.));
#442=DIRECTION('',(6.12323399573676E-17,0.,1.));
#443=DIRECTION('center_axis',(0.,1.,0.));
#444=DIRECTION('ref_axis',(1.,0.,0.));
#445=CARTESIAN_POINT('',(0.,0.,0.));
#446=CARTESIAN_POINT('Origin',(9.5,-40.5,2.2768771786978E-32));
#447=CARTESIAN_POINT('',(6.75,-40.5,1.61778115328528E-32));
#448=CARTESIAN_POINT('Origin',(9.5,-40.5,0.));
#449=CARTESIAN_POINT('',(6.75,-40.5,4.));
#450=CARTESIAN_POINT('',(6.75,-40.5,2.2768771786978E-32));
#451=CARTESIAN_POINT('Origin',(9.5,-40.5,4.));
#452=CARTESIAN_POINT('Origin',(9.5,-8.5,2.2768771786978E-32));
#453=CARTESIAN_POINT('',(6.75,-8.5,1.61778115328528E-32));
#454=CARTESIAN_POINT('Origin',(9.5,-8.5,0.));
#455=CARTESIAN_POINT('',(6.75,-8.5,4.));
#456=CARTESIAN_POINT('',(6.75,-8.5,2.2768771786978E-32));
#457=CARTESIAN_POINT('Origin',(9.5,-8.5,4.));
#458=CARTESIAN_POINT('Origin',(39.5,-40.5,9.46701563774348E-32));
#459=CARTESIAN_POINT('',(36.75,-40.5,8.80791961233096E-32));
#460=CARTESIAN_POINT('Origin',(39.5,-40.5,0.));
#461=CARTESIAN_POINT('',(36.75,-40.5,4.));
#462=CARTESIAN_POINT('',(36.75,-40.5,9.46701563774348E-32));
#463=CARTESIAN_POINT('Origin',(39.5,-40.5,4.));
#464=CARTESIAN_POINT('Origin',(39.5,-8.5,9.46701563774348E-32));
#465=CARTESIAN_POINT('',(36.75,-8.5,8.80791961233096E-32));
#466=CARTESIAN_POINT('Origin',(39.5,-8.5,0.));
#467=CARTESIAN_POINT('',(36.75,-8.5,4.));
#468=CARTESIAN_POINT('',(36.75,-8.5,9.46701563774348E-32));
#469=CARTESIAN_POINT('Origin',(39.5,-8.5,4.));
#470=CARTESIAN_POINT('Origin',(4.,-25.,60.));
#471=CARTESIAN_POINT('',(4.,-29.,60.));
#472=CARTESIAN_POINT('Origin',(4.,-25.,60.));
#473=CARTESIAN_POINT('',(4.9960036108132E-15,-29.,60.));
#474=CARTESIAN_POINT('',(4.,-29.,60.));
#475=CARTESIAN_POINT('Origin',(4.9960036108132E-15,-25.,60.));
#476=CARTESIAN_POINT('Origin',(4.,-25.,20.));
#477=CARTESIAN_POINT('',(4.,-29.,20.));
#478=CARTESIAN_POINT('Origin',(4.,-25.,20.));
#479=CARTESIAN_POINT('',(4.9960036108132E-15,-29.,20.));
#480=CARTESIAN_POINT('',(4.,-29.,20.));
#481=CARTESIAN_POINT('Origin',(4.9960036108132E-15,-25.,20.));
#482=CARTESIAN_POINT('Origin',(45.,-45.,4.));
#483=CARTESIAN_POINT('',(45.,-45.,4.));
#484=CARTESIAN_POINT('',(4.,-45.,4.));
#485=CARTESIAN_POINT('',(33.75,-45.,4.));
#486=CARTESIAN_POINT('',(45.,-3.99999999999999,4.));
#487=CARTESIAN_POINT('',(45.,0.,4.));
#488=CARTESIAN_POINT('',(4.,-3.99999999999999,4.));
#489=CARTESIAN_POINT('',(45.,-3.99999999999999,4.));
#490=CARTESIAN_POINT('',(4.,-45.,4.));
#491=CARTESIAN_POINT('Origin',(4.,-45.,4.));
#492=CARTESIAN_POINT('',(4.00000000000001,-45.,80.));
#493=CARTESIAN_POINT('',(4.,-45.,22.));
#494=CARTESIAN_POINT('',(4.,-3.99999999999999,80.));
#495=CARTESIAN_POINT('',(4.,-3.99999999999999,4.));
#496=CARTESIAN_POINT('',(4.00000000000001,0.,80.));
#497=CARTESIAN_POINT('Origin',(24.5,-3.99999999999999,42.));
#498=CARTESIAN_POINT('',(34.75,-3.99999999999999,23.));
#499=CARTESIAN_POINT('Origin',(22.5,-45.,40.));
#500=CARTESIAN_POINT('',(4.89858719658941E-15,-45.,80.));
#501=CARTESIAN_POINT('',(4.89858719658941E-15,-45.,80.));
#502=CARTESIAN_POINT('',(0.,-45.,0.));
#503=CARTESIAN_POINT('',(0.,-45.,0.));
#504=CARTESIAN_POINT('',(45.,-45.,1.07852076885685E-31));
#505=CARTESIAN_POINT('',(0.,-45.,0.));
#506=CARTESIAN_POINT('',(45.,-45.,1.07852076885685E-31));
#507=CARTESIAN_POINT('Origin',(4.00000000000001,0.,80.));
#508=CARTESIAN_POINT('',(4.89858719658941E-15,0.,80.));
#509=CARTESIAN_POINT('',(4.00000000000001,0.,80.));
#510=CARTESIAN_POINT('',(4.89858719658941E-15,0.,80.));
#511=CARTESIAN_POINT('',(4.89858719658941E-15,0.,80.));
#512=CARTESIAN_POINT('',(4.00000000000001,0.,80.));
#513=CARTESIAN_POINT('Origin',(45.,0.,4.));
#514=CARTESIAN_POINT('',(45.,0.,4.));
#515=CARTESIAN_POINT('',(45.,0.,4.));
#516=CARTESIAN_POINT('',(45.,0.,4.));
#517=CARTESIAN_POINT('Origin',(45.,0.,1.07852076885685E-31));
#518=CARTESIAN_POINT('',(45.,0.,1.07852076885685E-31));
#519=CARTESIAN_POINT('',(45.,0.,1.07852076885685E-31));
#520=CARTESIAN_POINT('',(45.,0.,1.07852076885685E-31));
#521=CARTESIAN_POINT('Origin',(0.,0.,0.));
#522=CARTESIAN_POINT('',(0.,0.,0.));
#523=CARTESIAN_POINT('',(0.,0.,0.));
#524=CARTESIAN_POINT('',(0.,0.,0.));
#525=CARTESIAN_POINT('Origin',(4.89858719658941E-15,0.,80.));
#526=CARTESIAN_POINT('',(0.,0.,0.));
#527=CARTESIAN_POINT('Origin',(22.5,0.,40.));
#528=UNCERTAINTY_MEASURE_WITH_UNIT(LENGTH_MEASURE(0.01),#532,
'DISTANCE_ACCURACY_VALUE',
'Maximum model space distance between geometric entities at asserted c
onnectivities');
#529=UNCERTAINTY_MEASURE_WITH_UNIT(LENGTH_MEASURE(0.01),#532,
'DISTANCE_ACCURACY_VALUE',
'Maximum model space distance between geometric entities at asserted c
onnectivities');
#530=(
GEOMETRIC_REPRESENTATION_CONTEXT(3)
GLOBAL_UNCERTAINTY_ASSIGNED_CONTEXT((#528))
GLOBAL_UNIT_ASSIGNED_CONTEXT((#532,#534,#535))
REPRESENTATION_CONTEXT('','3D')
);
#531=(
GEOMETRIC_REPRESENTATION_CONTEXT(3)
GLOBAL_UNCERTAINTY_ASSIGNED_CONTEXT((#529))
GLOBAL_UNIT_ASSIGNED_CONTEXT((#532,#534,#535))
REPRESENTATION_CONTEXT('','3D')
);
#532=(
LENGTH_UNIT()
NAMED_UNIT(*)
SI_UNIT(.MILLI.,.METRE.)
);
#533=(
LENGTH_UNIT()
NAMED_UNIT(*)
SI_UNIT($,.METRE.)
);
#534=(
NAMED_UNIT(*)
PLANE_ANGLE_UNIT()
SI_UNIT($,.RADIAN.)
);
#535=(
NAMED_UNIT(*)
SI_UNIT($,.STERADIAN.)
SOLID_ANGLE_UNIT()
);
#536=SHAPE_DEFINITION_REPRESENTATION(#537,#538);
#537=PRODUCT_DEFINITION_SHAPE('',$,#540);
#538=SHAPE_REPRESENTATION('',(#330),#530);
#539=PRODUCT_DEFINITION_CONTEXT('part definition',#544,'design');
#540=PRODUCT_DEFINITION('Equerre_renforc\X\E9e','Equerre_renforc\X\E9e
 v4',#541,#539);
#541=PRODUCT_DEFINITION_FORMATION('',$,#546);
#542=PRODUCT_RELATED_PRODUCT_CATEGORY('Equerre_renforc\X\E9e v4',
'Equerre_renforc\X\E9e v4',(#546));
#543=APPLICATION_PROTOCOL_DEFINITION('international standard',
'automotive_design',2009,#544);
#544=APPLICATION_CONTEXT(
'Core Data for Automotive Mechanical Design Process');
#545=PRODUCT_CONTEXT('part definition',#544,'mechanical');
#546=PRODUCT('Equerre_renforc\X\E9e','Equerre_renforc\X\E9e v4',$,(#545));
#547=PRESENTATION_STYLE_ASSIGNMENT((#548));
#548=SURFACE_STYLE_USAGE(.BOTH.,#549);
#549=SURFACE_SIDE_STYLE('',(#550));
#550=SURFACE_STYLE_FILL_AREA(#551);
#551=FILL_AREA_STYLE('Acier - Satin\X\E9',(#552));
#552=FILL_AREA_STYLE_COLOUR('Acier - Satin\X\E9',#553);
#553=COLOUR_RGB('Acier - Satin\X\E9',0.627450980392157,0.627450980392157,
0.627450980392157);
ENDSEC;
END-ISO-10303-21;
