ISO-10303-21;
HEADER;
FILE_DESCRIPTION(('FreeCAD Model'),'2;1');
FILE_NAME('Open CASCADE Shape Model','2024-09-27T15:57:31',('Author'),(
    ''),'Open CASCADE STEP processor 7.6','FreeCAD','Unknown');
FILE_SCHEMA(('AUTOMOTIVE_DESIGN { 1 0 10303 214 1 1 1 1 }'));
ENDSEC;
DATA;
#1 = APPLICATION_PROTOCOL_DEFINITION('international standard',
  'automotive_design',2000,#2);
#2 = APPLICATION_CONTEXT(
  'core data for automotive mechanical design processes');
#3 = SHAPE_DEFINITION_REPRESENTATION(#4,#10);
#4 = PRODUCT_DEFINITION_SHAPE('','',#5);
#5 = PRODUCT_DEFINITION('design','',#6,#9);
#6 = PRODUCT_DEFINITION_FORMATION('','',#7);
#7 = PRODUCT('Revolution','Revolution','',(#8));
#8 = PRODUCT_CONTEXT('',#2,'mechanical');
#9 = PRODUCT_DEFINITION_CONTEXT('part definition',#2,'design');
#10 = ADVANCED_BREP_SHAPE_REPRESENTATION('',(#11,#15),#347);
#11 = AXIS2_PLACEMENT_3D('',#12,#13,#14);
#12 = CARTESIAN_POINT('',(0.,0.,0.));
#13 = DIRECTION('',(0.,0.,1.));
#14 = DIRECTION('',(1.,0.,-0.));
#15 = MANIFOLD_SOLID_BREP('',#16);
#16 = CLOSED_SHELL('',(#17,#50,#75,#95,#120,#145,#170,#190,#215,#240,
    #260,#285,#310,#335));
#17 = ADVANCED_FACE('',(#18),#45,.T.);
#18 = FACE_BOUND('',#19,.T.);
#19 = EDGE_LOOP('',(#20,#29,#37,#44));
#20 = ORIENTED_EDGE('',*,*,#21,.T.);
#21 = EDGE_CURVE('',#22,#22,#24,.T.);
#22 = VERTEX_POINT('',#23);
#23 = CARTESIAN_POINT('',(0.4,0.,0.));
#24 = CIRCLE('',#25,9.1);
#25 = AXIS2_PLACEMENT_3D('',#26,#27,#28);
#26 = CARTESIAN_POINT('',(9.5,-1.010302952409E-15,0.));
#27 = DIRECTION('',(1.110223024625E-16,1.,0.));
#28 = DIRECTION('',(-1.,1.110223024625E-16,0.));
#29 = ORIENTED_EDGE('',*,*,#30,.T.);
#30 = EDGE_CURVE('',#22,#31,#33,.T.);
#31 = VERTEX_POINT('',#32);
#32 = CARTESIAN_POINT('',(0.,0.4,1.33226762955E-16));
#33 = LINE('',#34,#35);
#34 = CARTESIAN_POINT('',(0.4,0.,0.));
#35 = VECTOR('',#36,1.);
#36 = DIRECTION('',(-0.707106781187,0.707106781187,2.355138688026E-16));
#37 = ORIENTED_EDGE('',*,*,#38,.F.);
#38 = EDGE_CURVE('',#31,#31,#39,.T.);
#39 = CIRCLE('',#40,9.5);
#40 = AXIS2_PLACEMENT_3D('',#41,#42,#43);
#41 = CARTESIAN_POINT('',(9.5,0.4,0.));
#42 = DIRECTION('',(1.110223024625E-16,1.,0.));
#43 = DIRECTION('',(-1.,1.110223024625E-16,1.402386978474E-17));
#44 = ORIENTED_EDGE('',*,*,#30,.F.);
#45 = CONICAL_SURFACE('',#46,9.1,0.785398163397);
#46 = AXIS2_PLACEMENT_3D('',#47,#48,#49);
#47 = CARTESIAN_POINT('',(9.5,-1.010302952409E-15,0.));
#48 = DIRECTION('',(1.110223024625E-16,1.,0.));
#49 = DIRECTION('',(-1.,1.110223024625E-16,0.));
#50 = ADVANCED_FACE('',(#51),#70,.T.);
#51 = FACE_BOUND('',#52,.T.);
#52 = EDGE_LOOP('',(#53,#54,#62,#69));
#53 = ORIENTED_EDGE('',*,*,#38,.T.);
#54 = ORIENTED_EDGE('',*,*,#55,.T.);
#55 = EDGE_CURVE('',#31,#56,#58,.T.);
#56 = VERTEX_POINT('',#57);
#57 = CARTESIAN_POINT('',(0.,8.8,4.884981308351E-15));
#58 = LINE('',#59,#60);
#59 = CARTESIAN_POINT('',(0.,0.4,1.33226762955E-16));
#60 = VECTOR('',#61,1.);
#61 = DIRECTION('',(0.,1.,5.656850649281E-16));
#62 = ORIENTED_EDGE('',*,*,#63,.F.);
#63 = EDGE_CURVE('',#56,#56,#64,.T.);
#64 = CIRCLE('',#65,9.5);
#65 = AXIS2_PLACEMENT_3D('',#66,#67,#68);
#66 = CARTESIAN_POINT('',(9.5,8.8,0.));
#67 = DIRECTION('',(1.110223024625E-16,1.,0.));
#68 = DIRECTION('',(-1.,1.110223024625E-16,5.142085587738E-16));
#69 = ORIENTED_EDGE('',*,*,#55,.F.);
#70 = CYLINDRICAL_SURFACE('',#71,9.5);
#71 = AXIS2_PLACEMENT_3D('',#72,#73,#74);
#72 = CARTESIAN_POINT('',(9.5,0.4,0.));
#73 = DIRECTION('',(1.110223024625E-16,1.,0.));
#74 = DIRECTION('',(-1.,1.110223024625E-16,1.402386978474E-17));
#75 = ADVANCED_FACE('',(#76,#79),#90,.T.);
#76 = FACE_BOUND('',#77,.T.);
#77 = EDGE_LOOP('',(#78));
#78 = ORIENTED_EDGE('',*,*,#63,.T.);
#79 = FACE_BOUND('',#80,.T.);
#80 = EDGE_LOOP('',(#81));
#81 = ORIENTED_EDGE('',*,*,#82,.F.);
#82 = EDGE_CURVE('',#83,#83,#85,.T.);
#83 = VERTEX_POINT('',#84);
#84 = CARTESIAN_POINT('',(-2.1,8.8,4.884981308351E-15));
#85 = CIRCLE('',#86,11.6);
#86 = AXIS2_PLACEMENT_3D('',#87,#88,#89);
#87 = CARTESIAN_POINT('',(9.5,8.8,0.));
#88 = DIRECTION('',(1.110223024625E-16,1.,0.));
#89 = DIRECTION('',(-1.,1.110223024625E-16,4.211190783061E-16));
#90 = PLANE('',#91);
#91 = AXIS2_PLACEMENT_3D('',#92,#93,#94);
#92 = CARTESIAN_POINT('',(9.5,8.8,0.));
#93 = DIRECTION('',(-1.110223024625E-16,-1.,-0.));
#94 = DIRECTION('',(1.,-1.110223024625E-16,-5.142085587738E-16));
#95 = ADVANCED_FACE('',(#96),#115,.T.);
#96 = FACE_BOUND('',#97,.T.);
#97 = EDGE_LOOP('',(#98,#99,#107,#114));
#98 = ORIENTED_EDGE('',*,*,#82,.T.);
#99 = ORIENTED_EDGE('',*,*,#100,.T.);
#100 = EDGE_CURVE('',#83,#101,#103,.T.);
#101 = VERTEX_POINT('',#102);
#102 = CARTESIAN_POINT('',(-2.5,9.2,3.064215547965E-15));
#103 = LINE('',#104,#105);
#104 = CARTESIAN_POINT('',(-2.1,8.8,4.884981308351E-15));
#105 = VECTOR('',#106,1.);
#106 = DIRECTION('',(-0.707106781187,0.707106781187,-3.218689540302E-15)
  );
#107 = ORIENTED_EDGE('',*,*,#108,.F.);
#108 = EDGE_CURVE('',#101,#101,#109,.T.);
#109 = CIRCLE('',#110,12.);
#110 = AXIS2_PLACEMENT_3D('',#111,#112,#113);
#111 = CARTESIAN_POINT('',(9.5,9.2,0.));
#112 = DIRECTION('',(1.110223024625E-16,1.,0.));
#113 = DIRECTION('',(-1.,1.110223024625E-16,2.553512956638E-16));
#114 = ORIENTED_EDGE('',*,*,#100,.F.);
#115 = CONICAL_SURFACE('',#116,11.6,0.785398163397);
#116 = AXIS2_PLACEMENT_3D('',#117,#118,#119);
#117 = CARTESIAN_POINT('',(9.5,8.8,0.));
#118 = DIRECTION('',(1.110223024625E-16,1.,0.));
#119 = DIRECTION('',(-1.,1.110223024625E-16,4.211190783061E-16));
#120 = ADVANCED_FACE('',(#121),#140,.T.);
#121 = FACE_BOUND('',#122,.T.);
#122 = EDGE_LOOP('',(#123,#124,#132,#139));
#123 = ORIENTED_EDGE('',*,*,#108,.T.);
#124 = ORIENTED_EDGE('',*,*,#125,.T.);
#125 = EDGE_CURVE('',#101,#126,#128,.T.);
#126 = VERTEX_POINT('',#127);
#127 = CARTESIAN_POINT('',(-2.5,13.9,7.804867863115E-15));
#128 = LINE('',#129,#130);
#129 = CARTESIAN_POINT('',(-2.5,9.2,3.064215547965E-15));
#130 = VECTOR('',#131,1.);
#131 = DIRECTION('',(0.,1.,1.008649428755E-15));
#132 = ORIENTED_EDGE('',*,*,#133,.F.);
#133 = EDGE_CURVE('',#126,#126,#134,.T.);
#134 = CIRCLE('',#135,12.);
#135 = AXIS2_PLACEMENT_3D('',#136,#137,#138);
#136 = CARTESIAN_POINT('',(9.5,13.9,0.));
#137 = DIRECTION('',(1.110223024625E-16,1.,0.));
#138 = DIRECTION('',(-1.,1.110223024625E-16,6.504056552596E-16));
#139 = ORIENTED_EDGE('',*,*,#125,.F.);
#140 = CYLINDRICAL_SURFACE('',#141,12.);
#141 = AXIS2_PLACEMENT_3D('',#142,#143,#144);
#142 = CARTESIAN_POINT('',(9.5,9.2,0.));
#143 = DIRECTION('',(1.110223024625E-16,1.,0.));
#144 = DIRECTION('',(-1.,1.110223024625E-16,2.553512956638E-16));
#145 = ADVANCED_FACE('',(#146),#165,.T.);
#146 = FACE_BOUND('',#147,.T.);
#147 = EDGE_LOOP('',(#148,#149,#157,#164));
#148 = ORIENTED_EDGE('',*,*,#133,.T.);
#149 = ORIENTED_EDGE('',*,*,#150,.T.);
#150 = EDGE_CURVE('',#126,#151,#153,.T.);
#151 = VERTEX_POINT('',#152);
#152 = CARTESIAN_POINT('',(-2.1,14.3,4.762856775642E-15));
#153 = LINE('',#154,#155);
#154 = CARTESIAN_POINT('',(-2.5,13.9,7.804867863115E-15));
#155 = VECTOR('',#156,1.);
#156 = DIRECTION('',(0.707106781187,0.707106781187,-5.377566670992E-15)
  );
#157 = ORIENTED_EDGE('',*,*,#158,.F.);
#158 = EDGE_CURVE('',#151,#151,#159,.T.);
#159 = CIRCLE('',#160,11.6);
#160 = AXIS2_PLACEMENT_3D('',#161,#162,#163);
#161 = CARTESIAN_POINT('',(9.5,14.3,0.));
#162 = DIRECTION('',(1.110223024625E-16,1.,0.));
#163 = DIRECTION('',(-1.,1.110223024625E-16,4.105911013484E-16));
#164 = ORIENTED_EDGE('',*,*,#150,.F.);
#165 = CONICAL_SURFACE('',#166,12.,0.785398163397);
#166 = AXIS2_PLACEMENT_3D('',#167,#168,#169);
#167 = CARTESIAN_POINT('',(9.5,13.9,0.));
#168 = DIRECTION('',(-1.110223024625E-16,-1.,-0.));
#169 = DIRECTION('',(-1.,1.110223024625E-16,6.504056552596E-16));
#170 = ADVANCED_FACE('',(#171,#174),#185,.T.);
#171 = FACE_BOUND('',#172,.T.);
#172 = EDGE_LOOP('',(#173));
#173 = ORIENTED_EDGE('',*,*,#158,.T.);
#174 = FACE_BOUND('',#175,.T.);
#175 = EDGE_LOOP('',(#176));
#176 = ORIENTED_EDGE('',*,*,#177,.F.);
#177 = EDGE_CURVE('',#178,#178,#180,.T.);
#178 = VERTEX_POINT('',#179);
#179 = CARTESIAN_POINT('',(0.,14.3,7.93809462607E-15));
#180 = CIRCLE('',#181,9.5);
#181 = AXIS2_PLACEMENT_3D('',#182,#183,#184);
#182 = CARTESIAN_POINT('',(9.5,14.3,0.));
#183 = DIRECTION('',(1.110223024625E-16,1.,0.));
#184 = DIRECTION('',(-1.,1.110223024625E-16,8.355889080074E-16));
#185 = PLANE('',#186);
#186 = AXIS2_PLACEMENT_3D('',#187,#188,#189);
#187 = CARTESIAN_POINT('',(9.5,14.3,0.));
#188 = DIRECTION('',(1.110223024625E-16,1.,0.));
#189 = DIRECTION('',(-1.,1.110223024625E-16,4.105911013484E-16));
#190 = ADVANCED_FACE('',(#191),#210,.T.);
#191 = FACE_BOUND('',#192,.T.);
#192 = EDGE_LOOP('',(#193,#194,#202,#209));
#193 = ORIENTED_EDGE('',*,*,#177,.T.);
#194 = ORIENTED_EDGE('',*,*,#195,.T.);
#195 = EDGE_CURVE('',#178,#196,#198,.T.);
#196 = VERTEX_POINT('',#197);
#197 = CARTESIAN_POINT('',(0.,23.9,1.335598298624E-14));
#198 = LINE('',#199,#200);
#199 = CARTESIAN_POINT('',(0.,14.3,7.93809462607E-15));
#200 = VECTOR('',#201,1.);
#201 = DIRECTION('',(0.,1.,5.643633708511E-16));
#202 = ORIENTED_EDGE('',*,*,#203,.F.);
#203 = EDGE_CURVE('',#196,#196,#204,.T.);
#204 = CIRCLE('',#205,9.5);
#205 = AXIS2_PLACEMENT_3D('',#206,#207,#208);
#206 = CARTESIAN_POINT('',(9.5,23.9,0.));
#207 = DIRECTION('',(1.110223024625E-16,1.,0.));
#208 = DIRECTION('',(-1.,1.110223024625E-16,1.40589294592E-15));
#209 = ORIENTED_EDGE('',*,*,#195,.F.);
#210 = CYLINDRICAL_SURFACE('',#211,9.5);
#211 = AXIS2_PLACEMENT_3D('',#212,#213,#214);
#212 = CARTESIAN_POINT('',(9.5,14.3,0.));
#213 = DIRECTION('',(1.110223024625E-16,1.,0.));
#214 = DIRECTION('',(-1.,1.110223024625E-16,8.355889080074E-16));
#215 = ADVANCED_FACE('',(#216),#235,.T.);
#216 = FACE_BOUND('',#217,.T.);
#217 = EDGE_LOOP('',(#218,#219,#227,#234));
#218 = ORIENTED_EDGE('',*,*,#203,.T.);
#219 = ORIENTED_EDGE('',*,*,#220,.T.);
#220 = EDGE_CURVE('',#196,#221,#223,.T.);
#221 = VERTEX_POINT('',#222);
#222 = CARTESIAN_POINT('',(0.4,24.3,8.093525849517E-15));
#223 = LINE('',#224,#225);
#224 = CARTESIAN_POINT('',(0.,23.9,1.335598298624E-14));
#225 = VECTOR('',#226,1.);
#226 = DIRECTION('',(0.707106781187,0.707106781187,-9.302797817701E-15)
  );
#227 = ORIENTED_EDGE('',*,*,#228,.F.);
#228 = EDGE_CURVE('',#221,#221,#229,.T.);
#229 = CIRCLE('',#230,9.1);
#230 = AXIS2_PLACEMENT_3D('',#231,#232,#233);
#231 = CARTESIAN_POINT('',(9.5,24.3,0.));
#232 = DIRECTION('',(1.110223024625E-16,1.,0.));
#233 = DIRECTION('',(-1.,1.110223024625E-16,8.893984450019E-16));
#234 = ORIENTED_EDGE('',*,*,#220,.F.);
#235 = CONICAL_SURFACE('',#236,9.5,0.785398163397);
#236 = AXIS2_PLACEMENT_3D('',#237,#238,#239);
#237 = CARTESIAN_POINT('',(9.5,23.9,0.));
#238 = DIRECTION('',(-1.110223024625E-16,-1.,-0.));
#239 = DIRECTION('',(-1.,1.110223024625E-16,1.40589294592E-15));
#240 = ADVANCED_FACE('',(#241,#244),#255,.T.);
#241 = FACE_BOUND('',#242,.T.);
#242 = EDGE_LOOP('',(#243));
#243 = ORIENTED_EDGE('',*,*,#228,.T.);
#244 = FACE_BOUND('',#245,.T.);
#245 = EDGE_LOOP('',(#246));
#246 = ORIENTED_EDGE('',*,*,#247,.F.);
#247 = EDGE_CURVE('',#248,#248,#250,.T.);
#248 = VERTEX_POINT('',#249);
#249 = CARTESIAN_POINT('',(2.7,24.3,1.34892097492E-14));
#250 = CIRCLE('',#251,6.8);
#251 = AXIS2_PLACEMENT_3D('',#252,#253,#254);
#252 = CARTESIAN_POINT('',(9.5,24.3,0.));
#253 = DIRECTION('',(1.110223024625E-16,1.,0.));
#254 = DIRECTION('',(-1.,1.110223024625E-16,1.983707316058E-15));
#255 = PLANE('',#256);
#256 = AXIS2_PLACEMENT_3D('',#257,#258,#259);
#257 = CARTESIAN_POINT('',(9.5,24.3,0.));
#258 = DIRECTION('',(1.110223024625E-16,1.,0.));
#259 = DIRECTION('',(-1.,1.110223024625E-16,8.893984450019E-16));
#260 = ADVANCED_FACE('',(#261),#280,.F.);
#261 = FACE_BOUND('',#262,.T.);
#262 = EDGE_LOOP('',(#263,#264,#272,#279));
#263 = ORIENTED_EDGE('',*,*,#247,.T.);
#264 = ORIENTED_EDGE('',*,*,#265,.T.);
#265 = EDGE_CURVE('',#248,#266,#268,.T.);
#266 = VERTEX_POINT('',#267);
#267 = CARTESIAN_POINT('',(3.4,23.6,7.860379014346E-15));
#268 = LINE('',#269,#270);
#269 = CARTESIAN_POINT('',(2.7,24.3,1.34892097492E-14));
#270 = VECTOR('',#271,1.);
#271 = DIRECTION('',(0.707106781187,-0.707106781187,-5.685977689662E-15)
  );
#272 = ORIENTED_EDGE('',*,*,#273,.F.);
#273 = EDGE_CURVE('',#266,#266,#274,.T.);
#274 = CIRCLE('',#275,6.1);
#275 = AXIS2_PLACEMENT_3D('',#276,#277,#278);
#276 = CARTESIAN_POINT('',(9.5,23.6,0.));
#277 = DIRECTION('',(1.110223024625E-16,1.,0.));
#278 = DIRECTION('',(-1.,1.110223024625E-16,1.288586723663E-15));
#279 = ORIENTED_EDGE('',*,*,#265,.F.);
#280 = CONICAL_SURFACE('',#281,6.8,0.785398163397);
#281 = AXIS2_PLACEMENT_3D('',#282,#283,#284);
#282 = CARTESIAN_POINT('',(9.5,24.3,0.));
#283 = DIRECTION('',(1.110223024625E-16,1.,0.));
#284 = DIRECTION('',(-1.,1.110223024625E-16,1.983707316058E-15));
#285 = ADVANCED_FACE('',(#286),#305,.F.);
#286 = FACE_BOUND('',#287,.T.);
#287 = EDGE_LOOP('',(#288,#289,#297,#304));
#288 = ORIENTED_EDGE('',*,*,#273,.T.);
#289 = ORIENTED_EDGE('',*,*,#290,.T.);
#290 = EDGE_CURVE('',#266,#291,#293,.T.);
#291 = VERTEX_POINT('',#292);
#292 = CARTESIAN_POINT('',(3.4,0.7,2.331468351713E-16));
#293 = LINE('',#294,#295);
#294 = CARTESIAN_POINT('',(3.4,23.6,7.860379014346E-15));
#295 = VECTOR('',#296,1.);
#296 = DIRECTION('',(0.,-1.,-3.330669073875E-16));
#297 = ORIENTED_EDGE('',*,*,#298,.F.);
#298 = EDGE_CURVE('',#291,#291,#299,.T.);
#299 = CIRCLE('',#300,6.1);
#300 = AXIS2_PLACEMENT_3D('',#301,#302,#303);
#301 = CARTESIAN_POINT('',(9.5,0.7,0.));
#302 = DIRECTION('',(1.110223024625E-16,1.,0.));
#303 = DIRECTION('',(-1.,1.110223024625E-16,3.822079265103E-17));
#304 = ORIENTED_EDGE('',*,*,#290,.F.);
#305 = CYLINDRICAL_SURFACE('',#306,6.1);
#306 = AXIS2_PLACEMENT_3D('',#307,#308,#309);
#307 = CARTESIAN_POINT('',(9.5,23.6,0.));
#308 = DIRECTION('',(-1.110223024625E-16,-1.,-0.));
#309 = DIRECTION('',(-1.,1.110223024625E-16,1.288586723663E-15));
#310 = ADVANCED_FACE('',(#311),#330,.F.);
#311 = FACE_BOUND('',#312,.T.);
#312 = EDGE_LOOP('',(#313,#314,#322,#329));
#313 = ORIENTED_EDGE('',*,*,#298,.T.);
#314 = ORIENTED_EDGE('',*,*,#315,.T.);
#315 = EDGE_CURVE('',#291,#316,#318,.T.);
#316 = VERTEX_POINT('',#317);
#317 = CARTESIAN_POINT('',(2.7,0.,0.));
#318 = LINE('',#319,#320);
#319 = CARTESIAN_POINT('',(3.4,0.7,2.331468351713E-16));
#320 = VECTOR('',#321,1.);
#321 = DIRECTION('',(-0.707106781187,-0.707106781187,-2.355138688026E-16
    ));
#322 = ORIENTED_EDGE('',*,*,#323,.F.);
#323 = EDGE_CURVE('',#316,#316,#324,.T.);
#324 = CIRCLE('',#325,6.8);
#325 = AXIS2_PLACEMENT_3D('',#326,#327,#328);
#326 = CARTESIAN_POINT('',(9.5,-7.549516567451E-16,0.));
#327 = DIRECTION('',(1.110223024625E-16,1.,0.));
#328 = DIRECTION('',(-1.,1.110223024625E-16,0.));
#329 = ORIENTED_EDGE('',*,*,#315,.F.);
#330 = CONICAL_SURFACE('',#331,6.1,0.785398163397);
#331 = AXIS2_PLACEMENT_3D('',#332,#333,#334);
#332 = CARTESIAN_POINT('',(9.5,0.7,0.));
#333 = DIRECTION('',(-1.110223024625E-16,-1.,-0.));
#334 = DIRECTION('',(-1.,1.110223024625E-16,3.822079265103E-17));
#335 = ADVANCED_FACE('',(#336,#339),#342,.T.);
#336 = FACE_BOUND('',#337,.T.);
#337 = EDGE_LOOP('',(#338));
#338 = ORIENTED_EDGE('',*,*,#323,.T.);
#339 = FACE_BOUND('',#340,.T.);
#340 = EDGE_LOOP('',(#341));
#341 = ORIENTED_EDGE('',*,*,#21,.F.);
#342 = PLANE('',#343);
#343 = AXIS2_PLACEMENT_3D('',#344,#345,#346);
#344 = CARTESIAN_POINT('',(9.5,-7.549516567451E-16,0.));
#345 = DIRECTION('',(-1.110223024625E-16,-1.,-0.));
#346 = DIRECTION('',(1.,-1.110223024625E-16,-0.));
#347 = ( GEOMETRIC_REPRESENTATION_CONTEXT(3) 
GLOBAL_UNCERTAINTY_ASSIGNED_CONTEXT((#351)) GLOBAL_UNIT_ASSIGNED_CONTEXT
((#348,#349,#350)) REPRESENTATION_CONTEXT('Context #1',
  '3D Context with UNIT and UNCERTAINTY') );
#348 = ( LENGTH_UNIT() NAMED_UNIT(*) SI_UNIT(.MILLI.,.METRE.) );
#349 = ( NAMED_UNIT(*) PLANE_ANGLE_UNIT() SI_UNIT($,.RADIAN.) );
#350 = ( NAMED_UNIT(*) SI_UNIT($,.STERADIAN.) SOLID_ANGLE_UNIT() );
#351 = UNCERTAINTY_MEASURE_WITH_UNIT(LENGTH_MEASURE(1.E-07),#348,
  'distance_accuracy_value','confusion accuracy');
#352 = PRODUCT_RELATED_PRODUCT_CATEGORY('part',$,(#7));
#353 = MECHANICAL_DESIGN_GEOMETRIC_PRESENTATION_REPRESENTATION('',(#354)
  ,#347);
#354 = STYLED_ITEM('color',(#355),#15);
#355 = PRESENTATION_STYLE_ASSIGNMENT((#356,#362));
#356 = SURFACE_STYLE_USAGE(.BOTH.,#357);
#357 = SURFACE_SIDE_STYLE('',(#358));
#358 = SURFACE_STYLE_FILL_AREA(#359);
#359 = FILL_AREA_STYLE('',(#360));
#360 = FILL_AREA_STYLE_COLOUR('',#361);
#361 = COLOUR_RGB('',0.800000010877,0.800000010877,0.800000010877);
#362 = CURVE_STYLE('',#363,POSITIVE_LENGTH_MEASURE(0.1),#364);
#363 = DRAUGHTING_PRE_DEFINED_CURVE_FONT('continuous');
#364 = COLOUR_RGB('',9.803921802644E-02,9.803921802644E-02,
  9.803921802644E-02);
ENDSEC;
END-ISO-10303-21;
