ISO-10303-21;
HEADER;
FILE_DESCRIPTION(('FreeCAD Model'),'2;1');
FILE_NAME('Open CASCADE Shape Model','2024-09-27T15:42:46',('Author'),(
    ''),'Open CASCADE STEP processor 7.6','FreeCAD','Unknown');
FILE_SCHEMA(('AUTOMOTIVE_DESIGN { 1 0 10303 214 1 1 1 1 }'));
ENDSEC;
DATA;
#1 = APPLICATION_PROTOCOL_DEFINITION('international standard',
  'automotive_design',2000,#2);
#2 = APPLICATION_CONTEXT(
  'core data for automotive mechanical design processes');
#3 = SHAPE_DEFINITION_REPRESENTATION(#4,#10);
#4 = PRODUCT_DEFINITION_SHAPE('','',#5);
#5 = PRODUCT_DEFINITION('design','',#6,#9);
#6 = PRODUCT_DEFINITION_FORMATION('','',#7);
#7 = PRODUCT('Corps001','Corps001','',(#8));
#8 = PRODUCT_CONTEXT('',#2,'mechanical');
#9 = PRODUCT_DEFINITION_CONTEXT('part definition',#2,'design');
#10 = ADVANCED_BREP_SHAPE_REPRESENTATION('',(#11,#15),#289);
#11 = AXIS2_PLACEMENT_3D('',#12,#13,#14);
#12 = CARTESIAN_POINT('',(0.,0.,0.));
#13 = DIRECTION('',(0.,0.,1.));
#14 = DIRECTION('',(1.,0.,-0.));
#15 = MANIFOLD_SOLID_BREP('',#16);
#16 = CLOSED_SHELL('',(#17,#50,#78,#103,#131,#151,#179,#204,#232,#252,
    #277));
#17 = ADVANCED_FACE('',(#18),#45,.T.);
#18 = FACE_BOUND('',#19,.T.);
#19 = EDGE_LOOP('',(#20,#29,#37,#44));
#20 = ORIENTED_EDGE('',*,*,#21,.T.);
#21 = EDGE_CURVE('',#22,#22,#24,.T.);
#22 = VERTEX_POINT('',#23);
#23 = CARTESIAN_POINT('',(10.15,4.896907711701E-23,1.058791184068E-22));
#24 = CIRCLE('',#25,10.15);
#25 = AXIS2_PLACEMENT_3D('',#26,#27,#28);
#26 = CARTESIAN_POINT('',(-7.105427357601E-15,3.176373231926E-22,
    1.126875975937E-15));
#27 = DIRECTION('',(1.110222636391E-16,-3.330660309451E-16,1.));
#28 = DIRECTION('',(1.,-1.323488980085E-23,-1.110222636391E-16));
#29 = ORIENTED_EDGE('',*,*,#30,.T.);
#30 = EDGE_CURVE('',#22,#31,#33,.T.);
#31 = VERTEX_POINT('',#32);
#32 = CARTESIAN_POINT('',(10.15,-6.694633045192E-15,13.4));
#33 = LINE('',#34,#35);
#34 = CARTESIAN_POINT('',(10.15,-1.480598936854E-22,-1.34334129191E-22)
  );
#35 = VECTOR('',#36,1.);
#36 = DIRECTION('',(1.002533373069E-14,-9.436878180465E-16,1.));
#37 = ORIENTED_EDGE('',*,*,#38,.F.);
#38 = EDGE_CURVE('',#31,#31,#39,.T.);
#39 = CIRCLE('',#40,10.15);
#40 = AXIS2_PLACEMENT_3D('',#41,#42,#43);
#41 = CARTESIAN_POINT('',(-5.329070518201E-15,-4.463084467598E-15,13.4)
  );
#42 = DIRECTION('',(1.110222636391E-16,-3.330660309451E-16,1.));
#43 = DIRECTION('',(1.,-2.19856996755E-16,-1.110222636391E-16));
#44 = ORIENTED_EDGE('',*,*,#30,.F.);
#45 = CYLINDRICAL_SURFACE('',#46,10.15);
#46 = AXIS2_PLACEMENT_3D('',#47,#48,#49);
#47 = CARTESIAN_POINT('',(-7.105427357601E-15,3.176373231926E-22,
    1.126875975937E-15));
#48 = DIRECTION('',(1.110222636391E-16,-3.330660309451E-16,1.));
#49 = DIRECTION('',(1.,-1.323488980085E-23,-1.110222636391E-16));
#50 = ADVANCED_FACE('',(#51),#70,.T.);
#51 = FACE_BOUND('',#52,.T.);
#52 = EDGE_LOOP('',(#53,#54,#62,#69));
#53 = ORIENTED_EDGE('',*,*,#38,.T.);
#54 = ORIENTED_EDGE('',*,*,#55,.T.);
#55 = EDGE_CURVE('',#31,#56,#58,.T.);
#56 = VERTEX_POINT('',#57);
#57 = CARTESIAN_POINT('',(9.75,3.496910069539E-08,13.8));
#58 = LINE('',#59,#60);
#59 = CARTESIAN_POINT('',(10.15,-1.264541690988E-14,13.4));
#60 = VECTOR('',#61,1.);
#61 = DIRECTION('',(-0.707106781187,6.18172321048E-08,0.707106781187));
#62 = ORIENTED_EDGE('',*,*,#63,.F.);
#63 = EDGE_CURVE('',#56,#56,#64,.T.);
#64 = CIRCLE('',#65,9.75);
#65 = AXIS2_PLACEMENT_3D('',#66,#67,#68);
#66 = CARTESIAN_POINT('',(-5.329070518201E-15,-4.596310997619E-15,13.8)
  );
#67 = DIRECTION('',(1.110222636391E-16,-3.330660309451E-16,1.));
#68 = DIRECTION('',(1.,3.586574901713E-09,-1.110222624445E-16));
#69 = ORIENTED_EDGE('',*,*,#55,.F.);
#70 = SURFACE_OF_REVOLUTION('',#71,#75);
#71 = LINE('',#72,#73);
#72 = CARTESIAN_POINT('',(10.15,-6.694633094161E-15,13.4));
#73 = VECTOR('',#74,1.);
#74 = DIRECTION('',(-0.707106781187,6.181723241882E-08,0.707106781187));
#75 = AXIS1_PLACEMENT('',#76,#77);
#76 = CARTESIAN_POINT('',(-7.105427357601E-15,3.176373231926E-22,
    -1.970288834694E-22));
#77 = DIRECTION('',(1.110222636391E-16,-3.330660309451E-16,1.));
#78 = ADVANCED_FACE('',(#79),#98,.T.);
#79 = FACE_BOUND('',#80,.T.);
#80 = EDGE_LOOP('',(#81,#82,#90,#97));
#81 = ORIENTED_EDGE('',*,*,#63,.T.);
#82 = ORIENTED_EDGE('',*,*,#83,.T.);
#83 = EDGE_CURVE('',#56,#84,#86,.T.);
#84 = VERTEX_POINT('',#85);
#85 = CARTESIAN_POINT('',(9.75,3.49690997295E-08,15.8));
#86 = LINE('',#87,#88);
#87 = CARTESIAN_POINT('',(9.75,3.496909456697E-08,13.8));
#88 = VECTOR('',#89,1.);
#89 = DIRECTION('',(1.005308931265E-14,-9.270344751036E-16,1.));
#90 = ORIENTED_EDGE('',*,*,#91,.F.);
#91 = EDGE_CURVE('',#84,#84,#92,.T.);
#92 = CIRCLE('',#93,9.75);
#93 = AXIS2_PLACEMENT_3D('',#94,#95,#96);
#94 = CARTESIAN_POINT('',(-5.329070518201E-15,-5.262443012449E-15,15.8)
  );
#95 = DIRECTION('',(1.110222636391E-16,-3.330660309451E-16,1.));
#96 = DIRECTION('',(1.,3.586574870969E-09,-1.110222624445E-16));
#97 = ORIENTED_EDGE('',*,*,#83,.F.);
#98 = CYLINDRICAL_SURFACE('',#99,9.75);
#99 = AXIS2_PLACEMENT_3D('',#100,#101,#102);
#100 = CARTESIAN_POINT('',(-5.329070518201E-15,-4.596310997619E-15,13.8)
  );
#101 = DIRECTION('',(1.110222636391E-16,-3.330660309451E-16,1.));
#102 = DIRECTION('',(1.,3.586574901713E-09,-1.110222624445E-16));
#103 = ADVANCED_FACE('',(#104),#123,.T.);
#104 = FACE_BOUND('',#105,.T.);
#105 = EDGE_LOOP('',(#106,#107,#115,#122));
#106 = ORIENTED_EDGE('',*,*,#91,.T.);
#107 = ORIENTED_EDGE('',*,*,#108,.T.);
#108 = EDGE_CURVE('',#84,#109,#111,.T.);
#109 = VERTEX_POINT('',#110);
#110 = CARTESIAN_POINT('',(9.55,5.245365072667E-08,16.));
#111 = LINE('',#112,#113);
#112 = CARTESIAN_POINT('',(9.75,3.496909271291E-08,15.8));
#113 = VECTOR('',#114,1.);
#114 = DIRECTION('',(-0.707106781187,6.181722256649E-08,0.707106781187)
  );
#115 = ORIENTED_EDGE('',*,*,#116,.F.);
#116 = EDGE_CURVE('',#109,#109,#117,.T.);
#117 = CIRCLE('',#118,9.55);
#118 = AXIS2_PLACEMENT_3D('',#119,#120,#121);
#119 = CARTESIAN_POINT('',(-5.329070518201E-15,-5.329056330399E-15,16.)
  );
#120 = DIRECTION('',(1.110222636391E-16,-3.330660309451E-16,1.));
#121 = DIRECTION('',(1.,5.492529429919E-09,-1.110222618097E-16));
#122 = ORIENTED_EDGE('',*,*,#108,.F.);
#123 = SURFACE_OF_REVOLUTION('',#124,#128);
#124 = LINE('',#125,#126);
#125 = CARTESIAN_POINT('',(9.75,3.49690997295E-08,15.8));
#126 = VECTOR('',#127,1.);
#127 = DIRECTION('',(-0.707106781187,6.181722288051E-08,0.707106781187)
  );
#128 = AXIS1_PLACEMENT('',#129,#130);
#129 = CARTESIAN_POINT('',(-7.105427357601E-15,3.176373231926E-22,
    -1.970288834694E-22));
#130 = DIRECTION('',(1.110222636391E-16,-3.330660309451E-16,1.));
#131 = ADVANCED_FACE('',(#132,#135),#146,.T.);
#132 = FACE_BOUND('',#133,.T.);
#133 = EDGE_LOOP('',(#134));
#134 = ORIENTED_EDGE('',*,*,#116,.T.);
#135 = FACE_BOUND('',#136,.T.);
#136 = EDGE_LOOP('',(#137));
#137 = ORIENTED_EDGE('',*,*,#138,.F.);
#138 = EDGE_CURVE('',#139,#139,#141,.T.);
#139 = VERTEX_POINT('',#140);
#140 = CARTESIAN_POINT('',(6.55,3.147219603152E-07,16.));
#141 = CIRCLE('',#142,6.55);
#142 = AXIS2_PLACEMENT_3D('',#143,#144,#145);
#143 = CARTESIAN_POINT('',(-5.329070518201E-15,-5.329056330399E-15,16.)
  );
#144 = DIRECTION('',(1.110222636391E-16,-3.330660309451E-16,1.));
#145 = DIRECTION('',(1.,4.804915506019E-08,-1.110222476355E-16));
#146 = PLANE('',#147);
#147 = AXIS2_PLACEMENT_3D('',#148,#149,#150);
#148 = CARTESIAN_POINT('',(-5.329070518201E-15,-5.329056330399E-15,16.)
  );
#149 = DIRECTION('',(1.110222636391E-16,-3.330660309451E-16,1.));
#150 = DIRECTION('',(1.,5.492529429919E-09,-1.110222618097E-16));
#151 = ADVANCED_FACE('',(#152),#171,.T.);
#152 = FACE_BOUND('',#153,.T.);
#153 = EDGE_LOOP('',(#154,#155,#163,#170));
#154 = ORIENTED_EDGE('',*,*,#138,.T.);
#155 = ORIENTED_EDGE('',*,*,#156,.T.);
#156 = EDGE_CURVE('',#139,#157,#159,.T.);
#157 = VERTEX_POINT('',#158);
#158 = CARTESIAN_POINT('',(6.35,3.322065115788E-07,15.8));
#159 = LINE('',#160,#161);
#160 = CARTESIAN_POINT('',(6.55,3.147219532098E-07,16.));
#161 = VECTOR('',#162,1.);
#162 = DIRECTION('',(-0.707106781187,6.181722413658E-08,-0.707106781187)
  );
#163 = ORIENTED_EDGE('',*,*,#164,.F.);
#164 = EDGE_CURVE('',#157,#157,#165,.T.);
#165 = CIRCLE('',#166,6.35);
#166 = AXIS2_PLACEMENT_3D('',#167,#168,#169);
#167 = CARTESIAN_POINT('',(-5.329070518201E-15,-5.262443012449E-15,15.8)
  );
#168 = DIRECTION('',(1.110222636391E-16,-3.330660309451E-16,1.));
#169 = DIRECTION('',(1.,5.231598690414E-08,-1.110222462144E-16));
#170 = ORIENTED_EDGE('',*,*,#156,.F.);
#171 = SURFACE_OF_REVOLUTION('',#172,#176);
#172 = LINE('',#173,#174);
#173 = CARTESIAN_POINT('',(6.55,3.147219603152E-07,16.));
#174 = VECTOR('',#175,1.);
#175 = DIRECTION('',(-0.707106781187,6.181722382256E-08,-0.707106781187)
  );
#176 = AXIS1_PLACEMENT('',#177,#178);
#177 = CARTESIAN_POINT('',(-7.105427357601E-15,3.176373231926E-22,
    -1.970288834694E-22));
#178 = DIRECTION('',(1.110222636391E-16,-3.330660309451E-16,1.));
#179 = ADVANCED_FACE('',(#180),#199,.F.);
#180 = FACE_BOUND('',#181,.T.);
#181 = EDGE_LOOP('',(#182,#183,#191,#198));
#182 = ORIENTED_EDGE('',*,*,#164,.T.);
#183 = ORIENTED_EDGE('',*,*,#184,.T.);
#184 = EDGE_CURVE('',#157,#185,#187,.T.);
#185 = VERTEX_POINT('',#186);
#186 = CARTESIAN_POINT('',(6.35,3.322065173242E-07,9.5));
#187 = LINE('',#188,#189);
#188 = CARTESIAN_POINT('',(6.35,3.322065045622E-07,15.8));
#189 = VECTOR('',#190,1.);
#190 = DIRECTION('',(-1.002533369953E-14,1.356056378453E-15,-1.));
#191 = ORIENTED_EDGE('',*,*,#192,.F.);
#192 = EDGE_CURVE('',#185,#185,#193,.T.);
#193 = CIRCLE('',#194,6.35);
#194 = AXIS2_PLACEMENT_3D('',#195,#196,#197);
#195 = CARTESIAN_POINT('',(-5.329070518201E-15,-3.164127043973E-15,9.5)
  );
#196 = DIRECTION('',(1.110222636391E-16,-3.330660309451E-16,1.));
#197 = DIRECTION('',(1.,5.231598747848E-08,-1.110222462144E-16));
#198 = ORIENTED_EDGE('',*,*,#184,.F.);
#199 = CYLINDRICAL_SURFACE('',#200,6.35);
#200 = AXIS2_PLACEMENT_3D('',#201,#202,#203);
#201 = CARTESIAN_POINT('',(-5.329070518201E-15,-5.262443012449E-15,15.8)
  );
#202 = DIRECTION('',(-1.110222636391E-16,3.330660309451E-16,-1.));
#203 = DIRECTION('',(1.,5.231598690414E-08,-1.110222462144E-16));
#204 = ADVANCED_FACE('',(#205),#224,.T.);
#205 = FACE_BOUND('',#206,.T.);
#206 = EDGE_LOOP('',(#207,#208,#216,#223));
#207 = ORIENTED_EDGE('',*,*,#192,.T.);
#208 = ORIENTED_EDGE('',*,*,#209,.T.);
#209 = EDGE_CURVE('',#185,#210,#212,.T.);
#210 = VERTEX_POINT('',#211);
#211 = CARTESIAN_POINT('',(6.55,3.147219621138E-07,9.3));
#212 = LINE('',#213,#214);
#213 = CARTESIAN_POINT('',(6.35,3.322065131054E-07,9.5));
#214 = VECTOR('',#215,1.);
#215 = DIRECTION('',(0.707106781187,-6.181723746274E-08,-0.707106781187)
  );
#216 = ORIENTED_EDGE('',*,*,#217,.F.);
#217 = EDGE_CURVE('',#210,#210,#218,.T.);
#218 = CIRCLE('',#219,6.55);
#219 = AXIS2_PLACEMENT_3D('',#220,#221,#222);
#220 = CARTESIAN_POINT('',(-7.105427357601E-15,-3.097513831902E-15,9.3)
  );
#221 = DIRECTION('',(1.110222636391E-16,-3.330660309451E-16,1.));
#222 = DIRECTION('',(1.,4.804915499409E-08,-1.110222476355E-16));
#223 = ORIENTED_EDGE('',*,*,#209,.F.);
#224 = SURFACE_OF_REVOLUTION('',#225,#229);
#225 = LINE('',#226,#227);
#226 = CARTESIAN_POINT('',(6.35,3.322065173242E-07,9.5));
#227 = VECTOR('',#228,1.);
#228 = DIRECTION('',(0.707106781187,-6.181723777676E-08,-0.707106781187)
  );
#229 = AXIS1_PLACEMENT('',#230,#231);
#230 = CARTESIAN_POINT('',(-7.105427357601E-15,3.176373231926E-22,
    -1.970288834694E-22));
#231 = DIRECTION('',(1.110222636391E-16,-3.330660309451E-16,1.));
#232 = ADVANCED_FACE('',(#233,#236),#247,.T.);
#233 = FACE_BOUND('',#234,.T.);
#234 = EDGE_LOOP('',(#235));
#235 = ORIENTED_EDGE('',*,*,#217,.T.);
#236 = FACE_BOUND('',#237,.T.);
#237 = EDGE_LOOP('',(#238));
#238 = ORIENTED_EDGE('',*,*,#239,.F.);
#239 = EDGE_CURVE('',#240,#240,#242,.T.);
#240 = VERTEX_POINT('',#241);
#241 = CARTESIAN_POINT('',(9.55,5.245365673852E-08,9.3));
#242 = CIRCLE('',#243,9.55);
#243 = AXIS2_PLACEMENT_3D('',#244,#245,#246);
#244 = CARTESIAN_POINT('',(-7.105427357601E-15,-3.097513831902E-15,9.3)
  );
#245 = DIRECTION('',(1.110222636391E-16,-3.330660309451E-16,1.));
#246 = DIRECTION('',(1.,5.492529825763E-09,-1.110222618097E-16));
#247 = PLANE('',#248);
#248 = AXIS2_PLACEMENT_3D('',#249,#250,#251);
#249 = CARTESIAN_POINT('',(-7.105427357601E-15,-3.097513831902E-15,9.3)
  );
#250 = DIRECTION('',(-1.110222636391E-16,3.330660309451E-16,-1.));
#251 = DIRECTION('',(-1.,-4.804915499409E-08,1.110222476355E-16));
#252 = ADVANCED_FACE('',(#253),#272,.F.);
#253 = FACE_BOUND('',#254,.T.);
#254 = EDGE_LOOP('',(#255,#256,#264,#271));
#255 = ORIENTED_EDGE('',*,*,#239,.T.);
#256 = ORIENTED_EDGE('',*,*,#257,.T.);
#257 = EDGE_CURVE('',#240,#258,#260,.T.);
#258 = VERTEX_POINT('',#259);
#259 = CARTESIAN_POINT('',(9.55,5.24536613848E-08,5.399271867715E-15));
#260 = LINE('',#261,#262);
#261 = CARTESIAN_POINT('',(9.55,5.24536526085E-08,9.3));
#262 = VECTOR('',#263,1.);
#263 = DIRECTION('',(-1.002533373558E-14,9.436878173349E-16,-1.));
#264 = ORIENTED_EDGE('',*,*,#265,.F.);
#265 = EDGE_CURVE('',#258,#258,#266,.T.);
#266 = CIRCLE('',#267,9.55);
#267 = AXIS2_PLACEMENT_3D('',#268,#269,#270);
#268 = CARTESIAN_POINT('',(-7.105427357601E-15,3.176373231926E-22,
    6.459534549789E-15));
#269 = DIRECTION('',(1.110222636391E-16,-3.330660309451E-16,1.));
#270 = DIRECTION('',(1.,5.492529987937E-09,-1.110222618097E-16));
#271 = ORIENTED_EDGE('',*,*,#257,.F.);
#272 = CYLINDRICAL_SURFACE('',#273,9.55);
#273 = AXIS2_PLACEMENT_3D('',#274,#275,#276);
#274 = CARTESIAN_POINT('',(-7.105427357601E-15,-3.097513831902E-15,9.3)
  );
#275 = DIRECTION('',(-1.110222636391E-16,3.330660309451E-16,-1.));
#276 = DIRECTION('',(1.,5.492529825763E-09,-1.110222618097E-16));
#277 = ADVANCED_FACE('',(#278,#281),#284,.T.);
#278 = FACE_BOUND('',#279,.T.);
#279 = EDGE_LOOP('',(#280));
#280 = ORIENTED_EDGE('',*,*,#265,.T.);
#281 = FACE_BOUND('',#282,.T.);
#282 = EDGE_LOOP('',(#283));
#283 = ORIENTED_EDGE('',*,*,#21,.F.);
#284 = PLANE('',#285);
#285 = AXIS2_PLACEMENT_3D('',#286,#287,#288);
#286 = CARTESIAN_POINT('',(-7.105427357601E-15,3.176373231926E-22,
    6.459534549789E-15));
#287 = DIRECTION('',(-1.110222636391E-16,3.330660309451E-16,-1.));
#288 = DIRECTION('',(-1.,-5.492529987937E-09,1.110222618097E-16));
#289 = ( GEOMETRIC_REPRESENTATION_CONTEXT(3) 
GLOBAL_UNCERTAINTY_ASSIGNED_CONTEXT((#293)) GLOBAL_UNIT_ASSIGNED_CONTEXT
((#290,#291,#292)) REPRESENTATION_CONTEXT('Context #1',
  '3D Context with UNIT and UNCERTAINTY') );
#290 = ( LENGTH_UNIT() NAMED_UNIT(*) SI_UNIT(.MILLI.,.METRE.) );
#291 = ( NAMED_UNIT(*) PLANE_ANGLE_UNIT() SI_UNIT($,.RADIAN.) );
#292 = ( NAMED_UNIT(*) SI_UNIT($,.STERADIAN.) SOLID_ANGLE_UNIT() );
#293 = UNCERTAINTY_MEASURE_WITH_UNIT(LENGTH_MEASURE(2.E-07),#290,
  'distance_accuracy_value','confusion accuracy');
#294 = PRODUCT_RELATED_PRODUCT_CATEGORY('part',$,(#7));
#295 = MECHANICAL_DESIGN_GEOMETRIC_PRESENTATION_REPRESENTATION('',(#296)
  ,#289);
#296 = STYLED_ITEM('color',(#297),#15);
#297 = PRESENTATION_STYLE_ASSIGNMENT((#298,#304));
#298 = SURFACE_STYLE_USAGE(.BOTH.,#299);
#299 = SURFACE_SIDE_STYLE('',(#300));
#300 = SURFACE_STYLE_FILL_AREA(#301);
#301 = FILL_AREA_STYLE('',(#302));
#302 = FILL_AREA_STYLE_COLOUR('',#303);
#303 = COLOUR_RGB('',0.800000010877,0.800000010877,0.800000010877);
#304 = CURVE_STYLE('',#305,POSITIVE_LENGTH_MEASURE(0.1),#306);
#305 = DRAUGHTING_PRE_DEFINED_CURVE_FONT('continuous');
#306 = COLOUR_RGB('',9.803921802644E-02,9.803921802644E-02,
  9.803921802644E-02);
ENDSEC;
END-ISO-10303-21;
