ISO-10303-21;
HEADER;

/* File generated by Shapr3D Version 3.0 */

FILE_DESCRIPTION(('HOOPS Exchange Step'),'2;1');

FILE_NAME('/var/folders/j5/sh06r4v930zdqmtf__2724q40000gn/T/com.shapr3d.shapr/export/temp_export',
'2024-09-26T14:19:18+02:00',
('nexusfinance'),
('Shapr3D Limited'),
'HOOPS Exchange 2023.2',
'Shapr3D',
'Authorized');

FILE_SCHEMA( ('AUTOMOTIVE_DESIGN { 1 0 10303 214 1 1 1 1 }') );

ENDSEC;

DATA;
#3=(NAMED_UNIT(*)PLANE_ANGLE_UNIT()SI_UNIT($,.RADIAN.));
#4=PLANE_ANGLE_MEASURE_WITH_UNIT(PLANE_ANGLE_MEASURE(0.0174532925),#3);
#5=(CONVERSION_BASED_UNIT('DEGREE',#4)NAMED_UNIT(#6)PLANE_ANGLE_UNIT());
#6=DIMENSIONAL_EXPONENTS(0.,0.,0.,0.,0.,0.,0.);
#7=(NAMED_UNIT(*)SI_UNIT($,.STERADIAN.)SOLID_ANGLE_UNIT());
#8=(LENGTH_UNIT()NAMED_UNIT(*)SI_UNIT(.MILLI.,.METRE.));
#9=UNCERTAINTY_MEASURE_WITH_UNIT(LENGTH_MEASURE(1.000000E-03),#8,'DISTANCE_ACCURACY_VALUE','Maximum Tolerance applied to model');
#10=(GEOMETRIC_REPRESENTATION_CONTEXT(3)GLOBAL_UNCERTAINTY_ASSIGNED_CONTEXT((#9))GLOBAL_UNIT_ASSIGNED_CONTEXT((#8,#5,#7))REPRESENTATION_CONTEXT('','root'));
#12=CARTESIAN_POINT('',(0.,0.,0.));
#13=DIRECTION('',(0.,0.,1.));
#14=DIRECTION('',(1.,0.,0.));
#15=AXIS2_PLACEMENT_3D('TS3D_PRODUCT_CSYS',#12,#13,#14);
#26=(NAMED_UNIT(*)PLANE_ANGLE_UNIT()SI_UNIT($,.RADIAN.));
#27=PLANE_ANGLE_MEASURE_WITH_UNIT(PLANE_ANGLE_MEASURE(0.0174532925),#26);
#28=(CONVERSION_BASED_UNIT('DEGREE',#27)NAMED_UNIT(#29)PLANE_ANGLE_UNIT());
#29=DIMENSIONAL_EXPONENTS(0.,0.,0.,0.,0.,0.,0.);
#30=(NAMED_UNIT(*)SI_UNIT($,.STERADIAN.)SOLID_ANGLE_UNIT());
#31=(LENGTH_UNIT()NAMED_UNIT(*)SI_UNIT(.MILLI.,.METRE.));
#32=UNCERTAINTY_MEASURE_WITH_UNIT(LENGTH_MEASURE(1.000000E-05),#31,'DISTANCE_ACCURACY_VALUE','Maximum Tolerance applied to model');
#33=(GEOMETRIC_REPRESENTATION_CONTEXT(3)GLOBAL_UNCERTAINTY_ASSIGNED_CONTEXT((#32))GLOBAL_UNIT_ASSIGNED_CONTEXT((#31,#28,#30))REPRESENTATION_CONTEXT('','PO-1140940-168484-Part435998-Qnt1-250ml red bull can adapter v2 2.stp'));
#45=CARTESIAN_POINT('',(0.,0.,0.));
#46=DIRECTION('',(0.,0.,1.));
#47=DIRECTION('',(1.,0.,-0.));
#48=AXIS2_PLACEMENT_3D('',#45,#46,#47);
#49=ITEM_DEFINED_TRANSFORMATION('','',#48,#15);
#50=(REPRESENTATION_RELATIONSHIP('','',#35,#16)REPRESENTATION_RELATIONSHIP_WITH_TRANSFORMATION(#49)SHAPE_REPRESENTATION_RELATIONSHIP());
#51=NEXT_ASSEMBLY_USAGE_OCCURRENCE('PO-1140940-168484-Part435998-Qnt1-250ml red bull can adapter v2 2.stp_1','PO-1140940-168484-Part435998-Qnt1-250ml red bull can adapter v2 2.stp','PO-1140940-168484-Part435998-Qnt1-250ml red bull can adapter v2 2.stp',#25,#44,$);
#52=PRODUCT_DEFINITION_SHAPE('','',#51);
#53=CONTEXT_DEPENDENT_SHAPE_REPRESENTATION(#50,#52);
#55=CARTESIAN_POINT('',(0.,64.375,0.));
#56=DIRECTION('',(-0.,1.,0.));
#57=DIRECTION('',(1.,0.,0.));
#58=AXIS2_PLACEMENT_3D('',#55,#56,#57);
#59=CONICAL_SURFACE('',#58,27.625,45.);
#60=CARTESIAN_POINT('',(28.25,65.,0.));
#61=VERTEX_POINT('',#60);
#62=CARTESIAN_POINT('',(27.,63.75,0.));
#63=VERTEX_POINT('',#62);
#64=CARTESIAN_POINT('',(28.25,65.,0.));
#65=DIRECTION('',(-0.707106781,-0.707106781,-0.));
#66=VECTOR('',#65,1.767766953);
#67=LINE('',#64,#66);
#68=EDGE_CURVE('',#61,#63,#67,.T.);
#69=ORIENTED_EDGE('',*,*,#68,.F.);
#70=CARTESIAN_POINT('',(-0.,65.,28.25));
#71=VERTEX_POINT('',#70);
#72=CARTESIAN_POINT('',(0.,65.,0.));
#73=DIRECTION('',(0.,1.,0.));
#74=DIRECTION('',(0.,-0.,1.));
#75=AXIS2_PLACEMENT_3D('',#72,#73,#74);
#76=CIRCLE('',#75,28.25);
#77=EDGE_CURVE('',#61,#71,#76,.T.);
#78=ORIENTED_EDGE('',*,*,#77,.T.);
#79=CARTESIAN_POINT('',(0.,65.,0.));
#80=DIRECTION('',(0.,1.,0.));
#81=DIRECTION('',(0.,-0.,1.));
#82=AXIS2_PLACEMENT_3D('',#79,#80,#81);
#83=CIRCLE('',#82,28.25);
#84=EDGE_CURVE('',#71,#61,#83,.T.);
#85=ORIENTED_EDGE('',*,*,#84,.T.);
#86=ORIENTED_EDGE('',*,*,#68,.T.);
#87=CARTESIAN_POINT('',(-0.,63.75,27.));
#88=VERTEX_POINT('',#87);
#89=CARTESIAN_POINT('',(0.,63.75,0.));
#90=DIRECTION('',(-0.,-1.,-0.));
#91=DIRECTION('',(0.,-0.,1.));
#92=AXIS2_PLACEMENT_3D('',#89,#90,#91);
#93=CIRCLE('',#92,27.);
#94=EDGE_CURVE('',#63,#88,#93,.T.);
#95=ORIENTED_EDGE('',*,*,#94,.T.);
#96=CARTESIAN_POINT('',(0.,63.75,0.));
#97=DIRECTION('',(-0.,-1.,-0.));
#98=DIRECTION('',(0.,-0.,1.));
#99=AXIS2_PLACEMENT_3D('',#96,#97,#98);
#100=CIRCLE('',#99,27.);
#101=EDGE_CURVE('',#88,#63,#100,.T.);
#102=ORIENTED_EDGE('',*,*,#101,.T.);
#103=EDGE_LOOP('',(#69,#78,#85,#86,#95,#102));
#104=FACE_BOUND('',#103,.T.);
#105=ADVANCED_FACE('',(#104),#59,.F.);
#106=CARTESIAN_POINT('',(0.,65.,0.));
#107=DIRECTION('',(0.,1.,0.));
#108=DIRECTION('',(0.,0.,1.));
#109=AXIS2_PLACEMENT_3D('',#106,#107,#108);
#110=PLANE('',#109);
#111=CARTESIAN_POINT('',(35.75,65.,-0.));
#112=VERTEX_POINT('',#111);
#113=CARTESIAN_POINT('',(-0.,65.,-35.75));
#114=VERTEX_POINT('',#113);
#115=CARTESIAN_POINT('',(0.,65.,-0.));
#116=DIRECTION('',(0.,-1.,-0.));
#117=DIRECTION('',(0.,0.,-1.));
#118=AXIS2_PLACEMENT_3D('',#115,#116,#117);
#119=CIRCLE('',#118,35.75);
#120=EDGE_CURVE('',#112,#114,#119,.T.);
#121=ORIENTED_EDGE('',*,*,#120,.F.);
#122=CARTESIAN_POINT('',(0.,65.,-0.));
#123=DIRECTION('',(0.,-1.,-0.));
#124=DIRECTION('',(0.,0.,-1.));
#125=AXIS2_PLACEMENT_3D('',#122,#123,#124);
#126=CIRCLE('',#125,35.75);
#127=EDGE_CURVE('',#114,#112,#126,.T.);
#128=ORIENTED_EDGE('',*,*,#127,.F.);
#129=EDGE_LOOP('',(#121,#128));
#130=FACE_BOUND('',#129,.T.);
#131=ORIENTED_EDGE('',*,*,#77,.F.);
#132=ORIENTED_EDGE('',*,*,#84,.F.);
#133=EDGE_LOOP('',(#131,#132));
#134=FACE_BOUND('',#133,.T.);
#135=ADVANCED_FACE('',(#130,#134),#110,.T.);
#136=CARTESIAN_POINT('',(0.,0.,0.));
#137=DIRECTION('',(-0.,1.,0.));
#138=DIRECTION('',(1.,0.,0.));
#139=AXIS2_PLACEMENT_3D('',#136,#137,#138);
#140=CYLINDRICAL_SURFACE('',#139,27.);
#141=CARTESIAN_POINT('',(27.,3.,-0.));
#142=VERTEX_POINT('',#141);
#143=CARTESIAN_POINT('',(27.,63.75,0.));
#144=DIRECTION('',(-0.,-1.,-0.));
#145=VECTOR('',#144,60.75);
#146=LINE('',#143,#145);
#147=EDGE_CURVE('',#63,#142,#146,.T.);
#148=ORIENTED_EDGE('',*,*,#147,.F.);
#149=ORIENTED_EDGE('',*,*,#101,.F.);
#150=ORIENTED_EDGE('',*,*,#94,.F.);
#151=ORIENTED_EDGE('',*,*,#147,.T.);
#152=CARTESIAN_POINT('',(-0.,3.,-27.));
#153=VERTEX_POINT('',#152);
#154=CARTESIAN_POINT('',(0.,3.,0.));
#155=DIRECTION('',(-0.,1.,-0.));
#156=DIRECTION('',(0.,0.,-1.));
#157=AXIS2_PLACEMENT_3D('',#154,#155,#156);
#158=CIRCLE('',#157,27.);
#159=EDGE_CURVE('',#153,#142,#158,.T.);
#160=ORIENTED_EDGE('',*,*,#159,.F.);
#161=CARTESIAN_POINT('',(0.,3.,0.));
#162=DIRECTION('',(-0.,1.,-0.));
#163=DIRECTION('',(0.,0.,-1.));
#164=AXIS2_PLACEMENT_3D('',#161,#162,#163);
#165=CIRCLE('',#164,27.);
#166=EDGE_CURVE('',#142,#153,#165,.T.);
#167=ORIENTED_EDGE('',*,*,#166,.F.);
#168=EDGE_LOOP('',(#148,#149,#150,#151,#160,#167));
#169=FACE_BOUND('',#168,.T.);
#170=ADVANCED_FACE('',(#169),#140,.F.);
#171=CARTESIAN_POINT('',(0.,64.375148733,-0.));
#172=DIRECTION('',(0.,-1.,-0.));
#173=DIRECTION('',(1.,0.,-0.));
#174=AXIS2_PLACEMENT_3D('',#171,#172,#173);
#175=CONICAL_SURFACE('',#174,36.388634303,45.625);
#176=CARTESIAN_POINT('',(37.027268606,63.750297466,-0.));
#177=VERTEX_POINT('',#176);
#178=CARTESIAN_POINT('',(37.027268606,63.750297466,-0.));
#179=DIRECTION('',(-0.714777897,0.699351526,0.));
#180=VECTOR('',#179,1.786944743);
#181=LINE('',#178,#180);
#182=EDGE_CURVE('',#177,#112,#181,.T.);
#183=ORIENTED_EDGE('',*,*,#182,.T.);
#184=ORIENTED_EDGE('',*,*,#120,.T.);
#185=ORIENTED_EDGE('',*,*,#127,.T.);
#186=ORIENTED_EDGE('',*,*,#182,.F.);
#187=CARTESIAN_POINT('',(-0.,63.750297466,-37.027268606));
#188=VERTEX_POINT('',#187);
#189=CARTESIAN_POINT('',(0.,63.750297466,-0.));
#190=DIRECTION('',(-0.,1.,0.));
#191=DIRECTION('',(0.,0.,-1.));
#192=AXIS2_PLACEMENT_3D('',#189,#190,#191);
#193=CIRCLE('',#192,37.027268606);
#194=EDGE_CURVE('',#177,#188,#193,.T.);
#195=ORIENTED_EDGE('',*,*,#194,.T.);
#196=CARTESIAN_POINT('',(-37.027268606,63.750297466,0.));
#197=VERTEX_POINT('',#196);
#198=CARTESIAN_POINT('',(0.,63.750297466,-0.));
#199=DIRECTION('',(-0.,1.,0.));
#200=DIRECTION('',(0.,0.,-1.));
#201=AXIS2_PLACEMENT_3D('',#198,#199,#200);
#202=CIRCLE('',#201,37.027268606);
#203=EDGE_CURVE('',#188,#197,#202,.T.);
#204=ORIENTED_EDGE('',*,*,#203,.T.);
#205=CARTESIAN_POINT('',(0.,63.750297466,-0.));
#206=DIRECTION('',(-0.,1.,0.));
#207=DIRECTION('',(0.,0.,-1.));
#208=AXIS2_PLACEMENT_3D('',#205,#206,#207);
#209=CIRCLE('',#208,37.027268606);
#210=EDGE_CURVE('',#197,#177,#209,.T.);
#211=ORIENTED_EDGE('',*,*,#210,.T.);
#212=EDGE_LOOP('',(#183,#184,#185,#186,#195,#204,#211));
#213=FACE_BOUND('',#212,.T.);
#214=ADVANCED_FACE('',(#213),#175,.T.);
#215=CARTESIAN_POINT('',(0.,65.,0.));
#216=DIRECTION('',(0.,-1.,0.));
#217=DIRECTION('',(-1.,0.,0.));
#218=AXIS2_PLACEMENT_3D('',#215,#216,#217);
#219=CONICAL_SURFACE('',#218,37.,1.25);
#220=CARTESIAN_POINT('',(-38.35286039,2.999286081,-0.));
#221=VERTEX_POINT('',#220);
#222=CARTESIAN_POINT('',(-38.35286039,2.999286081,0.));
#223=DIRECTION('',(0.021814885,0.999762027,-0.));
#224=VECTOR('',#223,60.765471922);
#225=LINE('',#222,#224);
#226=EDGE_CURVE('',#221,#197,#225,.T.);
#227=ORIENTED_EDGE('',*,*,#226,.T.);
#228=ORIENTED_EDGE('',*,*,#203,.F.);
#229=ORIENTED_EDGE('',*,*,#194,.F.);
#230=ORIENTED_EDGE('',*,*,#210,.F.);
#231=ORIENTED_EDGE('',*,*,#226,.F.);
#232=CARTESIAN_POINT('',(-0.,2.999286081,38.35286039));
#233=VERTEX_POINT('',#232);
#234=CARTESIAN_POINT('',(0.,2.999286081,-0.));
#235=DIRECTION('',(-0.,-1.,0.));
#236=DIRECTION('',(0.,0.,1.));
#237=AXIS2_PLACEMENT_3D('',#234,#235,#236);
#238=CIRCLE('',#237,38.35286039);
#239=EDGE_CURVE('',#233,#221,#238,.T.);
#240=ORIENTED_EDGE('',*,*,#239,.F.);
#241=CARTESIAN_POINT('',(0.,2.999286081,-0.));
#242=DIRECTION('',(-0.,-1.,0.));
#243=DIRECTION('',(0.,0.,1.));
#244=AXIS2_PLACEMENT_3D('',#241,#242,#243);
#245=CIRCLE('',#244,38.35286039);
#246=EDGE_CURVE('',#221,#233,#245,.T.);
#247=ORIENTED_EDGE('',*,*,#246,.F.);
#248=EDGE_LOOP('',(#227,#228,#229,#230,#231,#240,#247));
#249=FACE_BOUND('',#248,.T.);
#250=ADVANCED_FACE('',(#249),#219,.T.);
#251=CARTESIAN_POINT('',(0.,1.499643041,-0.));
#252=DIRECTION('',(0.,1.,-0.));
#253=DIRECTION('',(-1.,0.,0.));
#254=AXIS2_PLACEMENT_3D('',#251,#252,#253);
#255=CONICAL_SURFACE('',#254,36.885582718,44.375);
#256=CARTESIAN_POINT('',(-35.418305045,-0.,-0.));
#257=VERTEX_POINT('',#256);
#258=CARTESIAN_POINT('',(-38.35286039,2.999286081,-0.));
#259=DIRECTION('',(0.699351526,-0.714777897,0.));
#260=VECTOR('',#259,4.196109158);
#261=LINE('',#258,#260);
#262=EDGE_CURVE('',#221,#257,#261,.T.);
#263=ORIENTED_EDGE('',*,*,#262,.T.);
#264=CARTESIAN_POINT('',(-0.,0.,35.418305045));
#265=VERTEX_POINT('',#264);
#266=CARTESIAN_POINT('',(0.,-0.,0.));
#267=DIRECTION('',(0.,1.,-0.));
#268=DIRECTION('',(0.,0.,1.));
#269=AXIS2_PLACEMENT_3D('',#266,#267,#268);
#270=CIRCLE('',#269,35.418305045);
#271=EDGE_CURVE('',#257,#265,#270,.T.);
#272=ORIENTED_EDGE('',*,*,#271,.T.);
#273=CARTESIAN_POINT('',(0.,-0.,0.));
#274=DIRECTION('',(0.,1.,-0.));
#275=DIRECTION('',(0.,0.,1.));
#276=AXIS2_PLACEMENT_3D('',#273,#274,#275);
#277=CIRCLE('',#276,35.418305045);
#278=EDGE_CURVE('',#265,#257,#277,.T.);
#279=ORIENTED_EDGE('',*,*,#278,.T.);
#280=ORIENTED_EDGE('',*,*,#262,.F.);
#281=ORIENTED_EDGE('',*,*,#246,.T.);
#282=ORIENTED_EDGE('',*,*,#239,.T.);
#283=EDGE_LOOP('',(#263,#272,#279,#280,#281,#282));
#284=FACE_BOUND('',#283,.T.);
#285=ADVANCED_FACE('',(#284),#255,.T.);
#286=CARTESIAN_POINT('',(0.,0.,0.));
#287=DIRECTION('',(0.,1.,0.));
#288=DIRECTION('',(0.,0.,1.));
#289=AXIS2_PLACEMENT_3D('',#286,#287,#288);
#290=PLANE('',#289);
#291=ORIENTED_EDGE('',*,*,#271,.F.);
#292=ORIENTED_EDGE('',*,*,#278,.F.);
#293=EDGE_LOOP('',(#291,#292));
#294=FACE_BOUND('',#293,.T.);
#295=CARTESIAN_POINT('',(30.,0.,-0.));
#296=VERTEX_POINT('',#295);
#297=CARTESIAN_POINT('',(-0.,0.,-30.));
#298=VERTEX_POINT('',#297);
#299=CARTESIAN_POINT('',(0.,0.,0.));
#300=DIRECTION('',(0.,-1.,0.));
#301=DIRECTION('',(0.,0.,-1.));
#302=AXIS2_PLACEMENT_3D('',#299,#300,#301);
#303=CIRCLE('',#302,30.);
#304=EDGE_CURVE('',#296,#298,#303,.T.);
#305=ORIENTED_EDGE('',*,*,#304,.F.);
#306=CARTESIAN_POINT('',(0.,0.,0.));
#307=DIRECTION('',(0.,-1.,0.));
#308=DIRECTION('',(0.,0.,-1.));
#309=AXIS2_PLACEMENT_3D('',#306,#307,#308);
#310=CIRCLE('',#309,30.);
#311=EDGE_CURVE('',#298,#296,#310,.T.);
#312=ORIENTED_EDGE('',*,*,#311,.F.);
#313=EDGE_LOOP('',(#305,#312));
#314=FACE_BOUND('',#313,.T.);
#315=ADVANCED_FACE('',(#294,#314),#290,.F.);
#316=CARTESIAN_POINT('',(0.,1.5,0.));
#317=DIRECTION('',(0.,-1.,0.));
#318=DIRECTION('',(1.,0.,0.));
#319=AXIS2_PLACEMENT_3D('',#316,#317,#318);
#320=CONICAL_SURFACE('',#319,28.5,45.);
#321=CARTESIAN_POINT('',(30.,0.,0.));
#322=DIRECTION('',(-0.707106781,0.707106781,-0.));
#323=VECTOR('',#322,4.242640687);
#324=LINE('',#321,#323);
#325=EDGE_CURVE('',#296,#142,#324,.T.);
#326=ORIENTED_EDGE('',*,*,#325,.F.);
#327=ORIENTED_EDGE('',*,*,#304,.T.);
#328=ORIENTED_EDGE('',*,*,#311,.T.);
#329=ORIENTED_EDGE('',*,*,#325,.T.);
#330=ORIENTED_EDGE('',*,*,#166,.T.);
#331=ORIENTED_EDGE('',*,*,#159,.T.);
#332=EDGE_LOOP('',(#326,#327,#328,#329,#330,#331));
#333=FACE_BOUND('',#332,.T.);
#334=ADVANCED_FACE('',(#333),#320,.F.);
#335=CLOSED_SHELL('',(#105,#135,#170,#214,#250,#285,#315,#334));
#336=MANIFOLD_SOLID_BREP('Solid1',#335);
#337=COLOUR_RGB('',0.749019623,0.749019623,0.749019623);
#338=FILL_AREA_STYLE_COLOUR('',#337);
#339=FILL_AREA_STYLE('',(#338));
#340=SURFACE_STYLE_FILL_AREA(#339);
#341=SURFACE_SIDE_STYLE('',(#340));
#342=SURFACE_STYLE_USAGE(.BOTH.,#341);
#343=PRESENTATION_STYLE_ASSIGNMENT((#342));
#54=STYLED_ITEM('',(#343),#336);
#35=SHAPE_REPRESENTATION('PO-1140940-168484-Part435998-Qnt1-250ml red bull can adapter v2 2.stp',(#15),#33);
#36=ADVANCED_BREP_SHAPE_REPRESENTATION('PO-1140940-168484-Part435998-Qnt1-250ml red bull can adapter v2 2.stp',(#336),#33);
#351=SHAPE_REPRESENTATION_RELATIONSHIP('','',#35,#36);
#352=APPLICATION_CONTEXT('data for automotive mechanical design processes');
#353=APPLICATION_PROTOCOL_DEFINITION('international standard','automotive_design',1994,#352);
#354=PRODUCT_CONTEXT('',#352,'mechanical');
#355=PRODUCT_DEFINITION_CONTEXT('part definition',#352,'design');
#43=PRODUCT('PO-1140940-168484-Part435998-Qnt1-250ml red bull can adapter v2 2.stp','PO-1140940-168484-Part435998-Qnt1-250ml red bull can adapter v2 2.stp','',(#354));
#356=PRODUCT_RELATED_PRODUCT_CATEGORY('part','',(#43));
#357=PRODUCT_DEFINITION_FORMATION_WITH_SPECIFIED_SOURCE('','',#43,.NOT_KNOWN.);
#44=PRODUCT_DEFINITION('design','',#357,#355);
#42=PRODUCT_DEFINITION_SHAPE('','',#44);
#358=SHAPE_DEFINITION_REPRESENTATION(#42,#35);
#34=DRAUGHTING_MODEL('',(),#33);
#16=SHAPE_REPRESENTATION('root',(#15,#48),#10);
#24=PRODUCT('root','root','',(#354));
#359=PRODUCT_RELATED_PRODUCT_CATEGORY('part','',(#24));
#360=PRODUCT_DEFINITION_FORMATION_WITH_SPECIFIED_SOURCE('','',#24,.NOT_KNOWN.);
#25=PRODUCT_DEFINITION('design','',#360,#355);
#23=PRODUCT_DEFINITION_SHAPE('','',#25);
#361=SHAPE_DEFINITION_REPRESENTATION(#23,#16);
#11=DRAUGHTING_MODEL('',(),#10);
#1=MECHANICAL_DESIGN_GEOMETRIC_PRESENTATION_REPRESENTATION('',(#54),#10);
ENDSEC;
END-ISO-10303-21;
