ISO-10303-21;
HEADER;
FILE_DESCRIPTION(('CATIA V5 STEP Exchange','CAx-IF Rec.Pracs.--- Model Styling and Organization---1.4--- 2014-01-23','CAx-IF Rec.Pracs.---3D Tessellated Data Validation Properties---0.5---2014-09-14'),'2;1');

FILE_NAME('C:\\Users\\marcd\\Desktop\\axe 10 glacier.stp','2024-09-24T17:24:41+00:00',('none'),('none'),'CATIA Version 5-6 Release 2019 SP6','CATIA V5 STEP AP242 v1','none');

FILE_SCHEMA(('AP242_MANAGED_MODEL_BASED_3D_ENGINEERING_MIM_LF  {1 0 10303 442 1 1 4}'));

ENDSEC;
DATA;
#5=PRODUCT('Part1','','',(#2)) ;
#2=PRODUCT_CONTEXT(' ',#1,'mechanical') ;
#1=APPLICATION_CONTEXT('managed model based 3d engineering') ;
#10=PRODUCT_DEFINITION('',' ',#6,#3) ;
#3=PRODUCT_DEFINITION_CONTEXT('part definition',#1,' ') ;
#11=PRODUCT_DEFINITION_SHAPE(' ',' ',#10) ;
#206=MECHANICAL_DESIGN_GEOMETRIC_PRESENTATION_REPRESENTATION(' ',(#29),#16) ;
#7=PRODUCT_CATEGORY('part','specification') ;
#19=SHAPE_REPRESENTATION(' ',(#18),#16) ;
#17=CARTESIAN_POINT(' ',(0.,0.,0.)) ;
#31=CARTESIAN_POINT('Axis2P3D Location',(0.,-18.5,0.)) ;
#36=CARTESIAN_POINT('Line Origine',(-2.39712769302,-18.5,-4.38791280945)) ;
#40=CARTESIAN_POINT('Vertex',(-2.39712769302,-36.,-4.38791280945)) ;
#42=CARTESIAN_POINT('Vertex',(-2.39712769302,36.,-4.38791280945)) ;
#45=CARTESIAN_POINT('Axis2P3D Location',(0.,36.,0.)) ;
#49=CARTESIAN_POINT('Vertex',(2.39712769302,36.,4.38791280945)) ;
#52=CARTESIAN_POINT('Line Origine',(2.39712769302,-18.5,4.38791280945)) ;
#56=CARTESIAN_POINT('Vertex',(2.39712769302,-36.,4.38791280945)) ;
#59=CARTESIAN_POINT('Axis2P3D Location',(0.,-36.,0.)) ;
#71=CARTESIAN_POINT('Axis2P3D Location',(0.,36.,0.)) ;
#76=CARTESIAN_POINT('Axis2P3D Location',(0.,-36.,0.)) ;
#88=CARTESIAN_POINT('Axis2P3D Location',(0.,-37.,0.)) ;
#93=CARTESIAN_POINT('Axis2P3D Location',(0.,-37.,1.06831260355E-16)) ;
#97=CARTESIAN_POINT('Vertex',(1.91770215442,-37.,3.51033024756)) ;
#99=CARTESIAN_POINT('Vertex',(-1.91770215442,-37.,-3.51033024756)) ;
#102=CARTESIAN_POINT('Axis2P3D Location',(0.,-37.,1.06831260355E-16)) ;
#112=CARTESIAN_POINT('Axis2P3D Location',(5.55111512313E-15,-41.,-3.33066907388E-15)) ;
#117=CARTESIAN_POINT('Line Origine',(-2.15741492372,-36.5,-3.94912152851)) ;
#122=CARTESIAN_POINT('Line Origine',(2.15741492372,-36.5,3.94912152851)) ;
#134=CARTESIAN_POINT('Axis2P3D Location',(8.881784197E-16,-41.,1.56125112838E-15)) ;
#146=CARTESIAN_POINT('Axis2P3D Location',(0.,37.,0.)) ;
#151=CARTESIAN_POINT('Axis2P3D Location',(0.,37.,1.06831260355E-16)) ;
#155=CARTESIAN_POINT('Vertex',(-1.91770215442,37.,-3.51033024756)) ;
#157=CARTESIAN_POINT('Vertex',(1.91770215442,37.,3.51033024756)) ;
#160=CARTESIAN_POINT('Axis2P3D Location',(0.,37.,1.06831260355E-16)) ;
#170=CARTESIAN_POINT('Axis2P3D Location',(5.55111512313E-15,41.,-3.33066907388E-15)) ;
#175=CARTESIAN_POINT('Line Origine',(2.15741492372,36.5,3.94912152851)) ;
#180=CARTESIAN_POINT('Line Origine',(-2.15741492372,36.5,-3.94912152851)) ;
#192=CARTESIAN_POINT('Axis2P3D Location',(8.881784197E-16,41.,1.56125112838E-15)) ;
#8=PRODUCT_RELATED_PRODUCT_CATEGORY('part',$,(#5)) ;
#15=UNCERTAINTY_MEASURE_WITH_UNIT(LENGTH_MEASURE(0.005),#12,'distance_accuracy_value','CONFUSED CURVE UNCERTAINTY') ;
#29=STYLED_ITEM(' ',(#28),#21) ;
#28=PRESENTATION_STYLE_ASSIGNMENT((#27)) ;
#27=SURFACE_STYLE_USAGE(.BOTH.,#26) ;
#26=SURFACE_SIDE_STYLE(' ',(#25)) ;
#25=SURFACE_STYLE_FILL_AREA(#24) ;
#24=FILL_AREA_STYLE(' ',(#23)) ;
#23=FILL_AREA_STYLE_COLOUR(' ',#22) ;
#38=VECTOR('Line Direction',#37,1.) ;
#54=VECTOR('Line Direction',#53,1.) ;
#119=VECTOR('Line Direction',#118,1.) ;
#124=VECTOR('Line Direction',#123,1.) ;
#177=VECTOR('Line Direction',#176,1.) ;
#182=VECTOR('Line Direction',#181,1.) ;
#32=DIRECTION('Axis2P3D Direction',(0.,1.,0.)) ;
#33=DIRECTION('Axis2P3D XDirection',(0.479425538604,-0.,0.87758256189)) ;
#37=DIRECTION('Vector Direction',(0.,1.,0.)) ;
#46=DIRECTION('Axis2P3D Direction',(0.,1.,0.)) ;
#53=DIRECTION('Vector Direction',(0.,1.,0.)) ;
#60=DIRECTION('Axis2P3D Direction',(0.,1.,0.)) ;
#72=DIRECTION('Axis2P3D Direction',(0.,1.,0.)) ;
#77=DIRECTION('Axis2P3D Direction',(0.,1.,0.)) ;
#89=DIRECTION('Axis2P3D Direction',(-0.,1.,0.)) ;
#90=DIRECTION('Axis2P3D XDirection',(1.,0.,0.)) ;
#94=DIRECTION('Axis2P3D Direction',(-0.,1.,0.)) ;
#103=DIRECTION('Axis2P3D Direction',(-0.,1.,0.)) ;
#113=DIRECTION('Axis2P3D Direction',(-1.33226762955E-15,1.,6.66133814775E-16)) ;
#114=DIRECTION('Axis2P3D XDirection',(0.520296023213,1.18538011437E-15,-0.853985976599)) ;
#118=DIRECTION('Vector Direction',(-0.339005049421,0.707106781187,-0.620544580564)) ;
#123=DIRECTION('Vector Direction',(0.339005049421,0.707106781187,0.620544580564)) ;
#135=DIRECTION('Axis2P3D Direction',(-4.4408920985E-16,1.,-3.26128013484E-16)) ;
#136=DIRECTION('Axis2P3D XDirection',(0.479425538604,5.26835606386E-16,0.87758256189)) ;
#147=DIRECTION('Axis2P3D Direction',(-0.,1.,0.)) ;
#148=DIRECTION('Axis2P3D XDirection',(1.,0.,0.)) ;
#152=DIRECTION('Axis2P3D Direction',(-0.,1.,0.)) ;
#161=DIRECTION('Axis2P3D Direction',(-0.,1.,0.)) ;
#171=DIRECTION('Axis2P3D Direction',(-1.33226762955E-15,-1.,6.66133814775E-16)) ;
#172=DIRECTION('Axis2P3D XDirection',(0.520296023213,-1.18538011437E-15,-0.853985976599)) ;
#176=DIRECTION('Vector Direction',(0.339005049421,-0.707106781187,0.620544580564)) ;
#181=DIRECTION('Vector Direction',(-0.339005049421,-0.707106781187,-0.620544580564)) ;
#193=DIRECTION('Axis2P3D Direction',(-4.4408920985E-16,-1.,-3.26128013484E-16)) ;
#194=DIRECTION('Axis2P3D XDirection',(0.479425538604,-5.26835606386E-16,0.87758256189)) ;
#205=SHAPE_REPRESENTATION_RELATIONSHIP(' ',' ',#19,#204) ;
#18=AXIS2_PLACEMENT_3D(' ',#17,$,$) ;
#34=AXIS2_PLACEMENT_3D('Cylinder Axis2P3D',#31,#32,#33) ;
#47=AXIS2_PLACEMENT_3D('Circle Axis2P3D',#45,#46,$) ;
#61=AXIS2_PLACEMENT_3D('Circle Axis2P3D',#59,#60,$) ;
#73=AXIS2_PLACEMENT_3D('Circle Axis2P3D',#71,#72,$) ;
#78=AXIS2_PLACEMENT_3D('Circle Axis2P3D',#76,#77,$) ;
#91=AXIS2_PLACEMENT_3D('Plane Axis2P3D',#88,#89,#90) ;
#95=AXIS2_PLACEMENT_3D('Circle Axis2P3D',#93,#94,$) ;
#104=AXIS2_PLACEMENT_3D('Circle Axis2P3D',#102,#103,$) ;
#115=AXIS2_PLACEMENT_3D('Cone Axis2P3D',#112,#113,#114) ;
#137=AXIS2_PLACEMENT_3D('Cone Axis2P3D',#134,#135,#136) ;
#149=AXIS2_PLACEMENT_3D('Plane Axis2P3D',#146,#147,#148) ;
#153=AXIS2_PLACEMENT_3D('Circle Axis2P3D',#151,#152,$) ;
#162=AXIS2_PLACEMENT_3D('Circle Axis2P3D',#160,#161,$) ;
#173=AXIS2_PLACEMENT_3D('Cone Axis2P3D',#170,#171,#172) ;
#195=AXIS2_PLACEMENT_3D('Cone Axis2P3D',#192,#193,#194) ;
#39=LINE('Line',#36,#38) ;
#55=LINE('Line',#52,#54) ;
#120=LINE('Line',#117,#119) ;
#125=LINE('Line',#122,#124) ;
#178=LINE('Line',#175,#177) ;
#183=LINE('Line',#180,#182) ;
#48=CIRCLE('generated circle',#47,5.) ;
#62=CIRCLE('generated circle',#61,5.) ;
#74=CIRCLE('generated circle',#73,5.) ;
#79=CIRCLE('generated circle',#78,5.) ;
#96=CIRCLE('generated circle',#95,4.) ;
#105=CIRCLE('generated circle',#104,4.) ;
#154=CIRCLE('generated circle',#153,4.) ;
#163=CIRCLE('generated circle',#162,4.) ;
#92=PLANE('',#91) ;
#150=PLANE('',#149) ;
#35=CYLINDRICAL_SURFACE('generated cylinder',#34,5.) ;
#116=CONICAL_SURFACE('Cone',#115,0.,0.785398163397) ;
#138=CONICAL_SURFACE('Cone',#137,0.,0.785398163397) ;
#174=CONICAL_SURFACE('Cone',#173,0.,0.785398163397) ;
#196=CONICAL_SURFACE('Cone',#195,0.,0.785398163397) ;
#44=EDGE_CURVE('',#41,#43,#39,.T.) ;
#51=EDGE_CURVE('',#50,#43,#48,.T.) ;
#58=EDGE_CURVE('',#57,#50,#55,.T.) ;
#63=EDGE_CURVE('',#57,#41,#62,.T.) ;
#75=EDGE_CURVE('',#43,#50,#74,.T.) ;
#80=EDGE_CURVE('',#41,#57,#79,.T.) ;
#101=EDGE_CURVE('',#98,#100,#96,.T.) ;
#106=EDGE_CURVE('',#100,#98,#105,.T.) ;
#121=EDGE_CURVE('',#41,#100,#120,.F.) ;
#126=EDGE_CURVE('',#57,#98,#125,.F.) ;
#159=EDGE_CURVE('',#156,#158,#154,.T.) ;
#164=EDGE_CURVE('',#158,#156,#163,.T.) ;
#179=EDGE_CURVE('',#50,#158,#178,.F.) ;
#184=EDGE_CURVE('',#43,#156,#183,.F.) ;
#30=CLOSED_SHELL('Closed Shell',(#70,#87,#111,#133,#145,#169,#191,#203)) ;
#65=ORIENTED_EDGE('',*,*,#44,.T.) ;
#66=ORIENTED_EDGE('',*,*,#51,.F.) ;
#67=ORIENTED_EDGE('',*,*,#58,.F.) ;
#68=ORIENTED_EDGE('',*,*,#63,.T.) ;
#82=ORIENTED_EDGE('',*,*,#58,.T.) ;
#83=ORIENTED_EDGE('',*,*,#75,.F.) ;
#84=ORIENTED_EDGE('',*,*,#44,.F.) ;
#85=ORIENTED_EDGE('',*,*,#80,.T.) ;
#108=ORIENTED_EDGE('',*,*,#101,.F.) ;
#109=ORIENTED_EDGE('',*,*,#106,.F.) ;
#128=ORIENTED_EDGE('',*,*,#121,.T.) ;
#129=ORIENTED_EDGE('',*,*,#106,.T.) ;
#130=ORIENTED_EDGE('',*,*,#126,.F.) ;
#131=ORIENTED_EDGE('',*,*,#80,.F.) ;
#140=ORIENTED_EDGE('',*,*,#126,.T.) ;
#141=ORIENTED_EDGE('',*,*,#101,.T.) ;
#142=ORIENTED_EDGE('',*,*,#121,.F.) ;
#143=ORIENTED_EDGE('',*,*,#63,.F.) ;
#166=ORIENTED_EDGE('',*,*,#159,.T.) ;
#167=ORIENTED_EDGE('',*,*,#164,.T.) ;
#186=ORIENTED_EDGE('',*,*,#75,.T.) ;
#187=ORIENTED_EDGE('',*,*,#179,.T.) ;
#188=ORIENTED_EDGE('',*,*,#159,.F.) ;
#189=ORIENTED_EDGE('',*,*,#184,.F.) ;
#198=ORIENTED_EDGE('',*,*,#51,.T.) ;
#199=ORIENTED_EDGE('',*,*,#184,.T.) ;
#200=ORIENTED_EDGE('',*,*,#164,.F.) ;
#201=ORIENTED_EDGE('',*,*,#179,.F.) ;
#64=EDGE_LOOP('',(#65,#66,#67,#68)) ;
#81=EDGE_LOOP('',(#82,#83,#84,#85)) ;
#107=EDGE_LOOP('',(#108,#109)) ;
#127=EDGE_LOOP('',(#128,#129,#130,#131)) ;
#139=EDGE_LOOP('',(#140,#141,#142,#143)) ;
#165=EDGE_LOOP('',(#166,#167)) ;
#185=EDGE_LOOP('',(#186,#187,#188,#189)) ;
#197=EDGE_LOOP('',(#198,#199,#200,#201)) ;
#21=MANIFOLD_SOLID_BREP('Corps principal',#30) ;
#41=VERTEX_POINT('',#40) ;
#43=VERTEX_POINT('',#42) ;
#50=VERTEX_POINT('',#49) ;
#57=VERTEX_POINT('',#56) ;
#98=VERTEX_POINT('',#97) ;
#100=VERTEX_POINT('',#99) ;
#156=VERTEX_POINT('',#155) ;
#158=VERTEX_POINT('',#157) ;
#204=ADVANCED_BREP_SHAPE_REPRESENTATION('NONE',(#21),#16) ;
#70=ADVANCED_FACE('Corps principal',(#69),#35,.T.) ;
#87=ADVANCED_FACE('Corps principal',(#86),#35,.T.) ;
#111=ADVANCED_FACE('Corps principal',(#110),#92,.F.) ;
#133=ADVANCED_FACE('Corps principal',(#132),#116,.T.) ;
#145=ADVANCED_FACE('Corps principal',(#144),#138,.T.) ;
#169=ADVANCED_FACE('Corps principal',(#168),#150,.T.) ;
#191=ADVANCED_FACE('Corps principal',(#190),#174,.T.) ;
#203=ADVANCED_FACE('Corps principal',(#202),#196,.T.) ;
#4=APPLICATION_PROTOCOL_DEFINITION('international standard','ap242_managed_model_based_3d_engineering',2014,#1) ;
#22=COLOUR_RGB('Colour',0.823529411765,0.823529411765,1.) ;
#69=FACE_OUTER_BOUND('',#64,.T.) ;
#86=FACE_OUTER_BOUND('',#81,.T.) ;
#110=FACE_OUTER_BOUND('',#107,.T.) ;
#132=FACE_OUTER_BOUND('',#127,.T.) ;
#144=FACE_OUTER_BOUND('',#139,.T.) ;
#168=FACE_OUTER_BOUND('',#165,.T.) ;
#190=FACE_OUTER_BOUND('',#185,.T.) ;
#202=FACE_OUTER_BOUND('',#197,.T.) ;
#9=PRODUCT_CATEGORY_RELATIONSHIP(' ',' ',#7,#8) ;
#6=PRODUCT_DEFINITION_FORMATION_WITH_SPECIFIED_SOURCE('',' ',#5,.NOT_KNOWN.) ;
#20=SHAPE_DEFINITION_REPRESENTATION(#11,#19) ;
#12=(LENGTH_UNIT()NAMED_UNIT(*)SI_UNIT(.MILLI.,.METRE.)) ;
#13=(NAMED_UNIT(*)PLANE_ANGLE_UNIT()SI_UNIT($,.RADIAN.)) ;
#14=(NAMED_UNIT(*)SI_UNIT($,.STERADIAN.)SOLID_ANGLE_UNIT()) ;
#16=(GEOMETRIC_REPRESENTATION_CONTEXT(3)GLOBAL_UNCERTAINTY_ASSIGNED_CONTEXT((#15))GLOBAL_UNIT_ASSIGNED_CONTEXT((#12,#13,#14))REPRESENTATION_CONTEXT(' ',' ')) ;
ENDSEC;
END-ISO-10303-21;
