ISO-10303-21;
HEADER;
FILE_DESCRIPTION(('FreeCAD Model'),'2;1');
FILE_NAME('Open CASCADE Shape Model','2024-09-08T22:54:21',('Author'),(
    ''),'Open CASCADE STEP processor 7.6','FreeCAD','Unknown');
FILE_SCHEMA(('AUTOMOTIVE_DESIGN { 1 0 10303 214 1 1 1 1 }'));
ENDSEC;
DATA;
#1 = APPLICATION_PROTOCOL_DEFINITION('international standard',
  'automotive_design',2000,#2);
#2 = APPLICATION_CONTEXT(
  'core data for automotive mechanical design processes');
#3 = SHAPE_DEFINITION_REPRESENTATION(#4,#10);
#4 = PRODUCT_DEFINITION_SHAPE('','',#5);
#5 = PRODUCT_DEFINITION('design','',#6,#9);
#6 = PRODUCT_DEFINITION_FORMATION('','',#7);
#7 = PRODUCT('ROD SUPPORT BEARING001','ROD SUPPORT BEARING001','',(#8));
#8 = PRODUCT_CONTEXT('',#2,'mechanical');
#9 = PRODUCT_DEFINITION_CONTEXT('part definition',#2,'design');
#10 = ADVANCED_BREP_SHAPE_REPRESENTATION('',(#11,#15),#509);
#11 = AXIS2_PLACEMENT_3D('',#12,#13,#14);
#12 = CARTESIAN_POINT('',(0.,0.,0.));
#13 = DIRECTION('',(0.,0.,1.));
#14 = DIRECTION('',(1.,0.,-0.));
#15 = MANIFOLD_SOLID_BREP('',#16);
#16 = CLOSED_SHELL('',(#17,#45,#137,#157,#182,#240,#287,#352,#369,#394,
    #419,#447,#471,#488));
#17 = ADVANCED_FACE('',(#18,#29),#40,.T.);
#18 = FACE_BOUND('',#19,.T.);
#19 = EDGE_LOOP('',(#20));
#20 = ORIENTED_EDGE('',*,*,#21,.F.);
#21 = EDGE_CURVE('',#22,#22,#24,.T.);
#22 = VERTEX_POINT('',#23);
#23 = CARTESIAN_POINT('',(22.,-3.,-2.694222958124E-15));
#24 = CIRCLE('',#25,22.);
#25 = AXIS2_PLACEMENT_3D('',#26,#27,#28);
#26 = CARTESIAN_POINT('',(0.,-3.,0.));
#27 = DIRECTION('',(0.,-1.,0.));
#28 = DIRECTION('',(-1.,0.,0.));
#29 = FACE_BOUND('',#30,.T.);
#30 = EDGE_LOOP('',(#31));
#31 = ORIENTED_EDGE('',*,*,#32,.F.);
#32 = EDGE_CURVE('',#33,#33,#35,.T.);
#33 = VERTEX_POINT('',#34);
#34 = CARTESIAN_POINT('',(-20.,-3.,2.449293598295E-15));
#35 = CIRCLE('',#36,20.);
#36 = AXIS2_PLACEMENT_3D('',#37,#38,#39);
#37 = CARTESIAN_POINT('',(0.,-3.,0.));
#38 = DIRECTION('',(-0.,1.,0.));
#39 = DIRECTION('',(1.,0.,0.));
#40 = PLANE('',#41);
#41 = AXIS2_PLACEMENT_3D('',#42,#43,#44);
#42 = CARTESIAN_POINT('',(0.,-3.,0.));
#43 = DIRECTION('',(0.,1.,0.));
#44 = DIRECTION('',(0.,-0.,1.));
#45 = ADVANCED_FACE('',(#46),#132,.F.);
#46 = FACE_BOUND('',#47,.F.);
#47 = EDGE_LOOP('',(#48,#56,#71,#86,#94,#101,#102,#117,#130,#131));
#48 = ORIENTED_EDGE('',*,*,#49,.T.);
#49 = EDGE_CURVE('',#22,#50,#52,.T.);
#50 = VERTEX_POINT('',#51);
#51 = CARTESIAN_POINT('',(22.,-2.031137118317,-5.371669943328E-15));
#52 = LINE('',#53,#54);
#53 = CARTESIAN_POINT('',(22.,0.,-2.694222958124E-15));
#54 = VECTOR('',#55,1.);
#55 = DIRECTION('',(0.,1.,0.));
#56 = ORIENTED_EDGE('',*,*,#57,.T.);
#57 = EDGE_CURVE('',#50,#58,#60,.T.);
#58 = VERTEX_POINT('',#59);
#59 = CARTESIAN_POINT('',(21.862199746366,0.427362881683,2.4585));
#60 = B_SPLINE_CURVE_WITH_KNOTS('',3,(#61,#62,#63,#64,#65,#66,#67,#68,
    #69,#70),.UNSPECIFIED.,.F.,.F.,(4,2,2,2,4),(0.370766272858,
    0.463457594482,0.556148916105,0.64884073091,0.741532545715),
  .UNSPECIFIED.);
#61 = CARTESIAN_POINT('',(22.,-2.031137118317,-8.049116928532E-15));
#62 = CARTESIAN_POINT('',(22.,-2.031137118317,0.30897107208));
#63 = CARTESIAN_POINT('',(21.992825319808,-1.969336378459,0.638361187077
    ));
#64 = CARTESIAN_POINT('',(21.966891255027,-1.718356854681,1.244009302542
    ));
#65 = CARTESIAN_POINT('',(21.948498874188,-1.529192301749,1.520288859662
    ));
#66 = CARTESIAN_POINT('',(21.913917240629,-1.092924817362,1.956556344049
    ));
#67 = CARTESIAN_POINT('',(21.895474485023,-0.81664576696,2.145719989193)
  );
#68 = CARTESIAN_POINT('',(21.869425048297,-0.210999358122,2.396698842039
    ));
#69 = CARTESIAN_POINT('',(21.862199746366,0.118390165666,2.4585));
#70 = CARTESIAN_POINT('',(21.862199746366,0.427362881683,2.4585));
#71 = ORIENTED_EDGE('',*,*,#72,.T.);
#72 = EDGE_CURVE('',#58,#73,#75,.T.);
#73 = VERTEX_POINT('',#74);
#74 = CARTESIAN_POINT('',(22.,2.885862881683,-4.990030778613E-15));
#75 = B_SPLINE_CURVE_WITH_KNOTS('',3,(#76,#77,#78,#79,#80,#81,#82,#83,
    #84,#85),.UNSPECIFIED.,.F.,.F.,(4,2,2,2,4),(0.741532545715,
    0.83422436052,0.926916175325,1.019607496949,1.112298818573),
  .UNSPECIFIED.);
#76 = CARTESIAN_POINT('',(21.862199746366,0.427362881683,2.4585));
#77 = CARTESIAN_POINT('',(21.862199746366,0.7363355977,2.4585));
#78 = CARTESIAN_POINT('',(21.869425048297,1.065725121488,2.396698842039)
  );
#79 = CARTESIAN_POINT('',(21.895474485023,1.671371530326,2.145719989193)
  );
#80 = CARTESIAN_POINT('',(21.913917240629,1.947650580728,1.956556344049)
  );
#81 = CARTESIAN_POINT('',(21.948498874188,2.383918065115,1.520288859662)
  );
#82 = CARTESIAN_POINT('',(21.966891255027,2.573082618047,1.244009302542)
  );
#83 = CARTESIAN_POINT('',(21.992825319808,2.824062141825,0.638361187077)
  );
#84 = CARTESIAN_POINT('',(22.,2.885862881683,0.30897107208));
#85 = CARTESIAN_POINT('',(22.,2.885862881683,-7.49400541622E-15));
#86 = ORIENTED_EDGE('',*,*,#87,.T.);
#87 = EDGE_CURVE('',#73,#88,#90,.T.);
#88 = VERTEX_POINT('',#89);
#89 = CARTESIAN_POINT('',(22.,3.,-2.694222958124E-15));
#90 = LINE('',#91,#92);
#91 = CARTESIAN_POINT('',(22.,0.,-2.694222958124E-15));
#92 = VECTOR('',#93,1.);
#93 = DIRECTION('',(0.,1.,0.));
#94 = ORIENTED_EDGE('',*,*,#95,.F.);
#95 = EDGE_CURVE('',#88,#88,#96,.T.);
#96 = CIRCLE('',#97,22.);
#97 = AXIS2_PLACEMENT_3D('',#98,#99,#100);
#98 = CARTESIAN_POINT('',(0.,3.,0.));
#99 = DIRECTION('',(0.,1.,0.));
#100 = DIRECTION('',(-1.,0.,0.));
#101 = ORIENTED_EDGE('',*,*,#87,.F.);
#102 = ORIENTED_EDGE('',*,*,#103,.T.);
#103 = EDGE_CURVE('',#73,#104,#106,.T.);
#104 = VERTEX_POINT('',#105);
#105 = CARTESIAN_POINT('',(21.862199746366,0.427362881683,-2.4585));
#106 = B_SPLINE_CURVE_WITH_KNOTS('',3,(#107,#108,#109,#110,#111,#112,
    #113,#114,#115,#116),.UNSPECIFIED.,.F.,.F.,(4,2,2,2,4),(
    1.112298818573,1.204990140197,1.297681461821,1.390373276626,
    1.483065091431),.UNSPECIFIED.);
#107 = CARTESIAN_POINT('',(22.,2.885862881683,-7.285838599103E-15));
#108 = CARTESIAN_POINT('',(22.,2.885862881683,-0.30897107208));
#109 = CARTESIAN_POINT('',(21.992825319808,2.824062141825,
    -0.638361187077));
#110 = CARTESIAN_POINT('',(21.966891255027,2.573082618047,
    -1.244009302542));
#111 = CARTESIAN_POINT('',(21.948498874188,2.383918065115,
    -1.520288859662));
#112 = CARTESIAN_POINT('',(21.913917240629,1.947650580728,
    -1.956556344049));
#113 = CARTESIAN_POINT('',(21.895474485023,1.671371530326,
    -2.145719989193));
#114 = CARTESIAN_POINT('',(21.869425048297,1.065725121488,
    -2.396698842039));
#115 = CARTESIAN_POINT('',(21.862199746366,0.7363355977,-2.4585));
#116 = CARTESIAN_POINT('',(21.862199746366,0.427362881683,-2.4585));
#117 = ORIENTED_EDGE('',*,*,#118,.T.);
#118 = EDGE_CURVE('',#104,#50,#119,.T.);
#119 = B_SPLINE_CURVE_WITH_KNOTS('',3,(#120,#121,#122,#123,#124,#125,
    #126,#127,#128,#129),.UNSPECIFIED.,.F.,.F.,(4,2,2,2,4),(0.,
    9.269181480497E-02,0.18538362961,0.278074951234,0.370766272858),
  .UNSPECIFIED.);
#120 = CARTESIAN_POINT('',(21.862199746366,0.427362881683,-2.4585));
#121 = CARTESIAN_POINT('',(21.862199746366,0.118390165666,-2.4585));
#122 = CARTESIAN_POINT('',(21.869425048297,-0.210999358122,
    -2.396698842039));
#123 = CARTESIAN_POINT('',(21.895474485023,-0.81664576696,
    -2.145719989193));
#124 = CARTESIAN_POINT('',(21.913917240629,-1.092924817362,
    -1.956556344049));
#125 = CARTESIAN_POINT('',(21.948498874188,-1.529192301749,
    -1.520288859662));
#126 = CARTESIAN_POINT('',(21.966891255027,-1.718356854681,
    -1.244009302542));
#127 = CARTESIAN_POINT('',(21.992825319808,-1.969336378459,
    -0.638361187077));
#128 = CARTESIAN_POINT('',(22.,-2.031137118317,-0.30897107208));
#129 = CARTESIAN_POINT('',(22.,-2.031137118317,-8.049116928532E-15));
#130 = ORIENTED_EDGE('',*,*,#49,.F.);
#131 = ORIENTED_EDGE('',*,*,#21,.F.);
#132 = CYLINDRICAL_SURFACE('',#133,22.);
#133 = AXIS2_PLACEMENT_3D('',#134,#135,#136);
#134 = CARTESIAN_POINT('',(0.,0.,0.));
#135 = DIRECTION('',(0.,1.,0.));
#136 = DIRECTION('',(-1.,0.,0.));
#137 = ADVANCED_FACE('',(#138,#141),#152,.F.);
#138 = FACE_BOUND('',#139,.T.);
#139 = EDGE_LOOP('',(#140));
#140 = ORIENTED_EDGE('',*,*,#95,.F.);
#141 = FACE_BOUND('',#142,.T.);
#142 = EDGE_LOOP('',(#143));
#143 = ORIENTED_EDGE('',*,*,#144,.F.);
#144 = EDGE_CURVE('',#145,#145,#147,.T.);
#145 = VERTEX_POINT('',#146);
#146 = CARTESIAN_POINT('',(-20.,3.,-2.449293598295E-15));
#147 = CIRCLE('',#148,20.);
#148 = AXIS2_PLACEMENT_3D('',#149,#150,#151);
#149 = CARTESIAN_POINT('',(0.,3.,0.));
#150 = DIRECTION('',(0.,-1.,0.));
#151 = DIRECTION('',(1.,0.,0.));
#152 = PLANE('',#153);
#153 = AXIS2_PLACEMENT_3D('',#154,#155,#156);
#154 = CARTESIAN_POINT('',(0.,3.,0.));
#155 = DIRECTION('',(0.,1.,0.));
#156 = DIRECTION('',(0.,-0.,1.));
#157 = ADVANCED_FACE('',(#158),#177,.F.);
#158 = FACE_BOUND('',#159,.F.);
#159 = EDGE_LOOP('',(#160,#168,#169,#170));
#160 = ORIENTED_EDGE('',*,*,#161,.T.);
#161 = EDGE_CURVE('',#162,#145,#164,.T.);
#162 = VERTEX_POINT('',#163);
#163 = CARTESIAN_POINT('',(-20.,7.5,2.449293598295E-15));
#164 = LINE('',#165,#166);
#165 = CARTESIAN_POINT('',(-20.,0.,2.449293598295E-15));
#166 = VECTOR('',#167,1.);
#167 = DIRECTION('',(0.,-1.,0.));
#168 = ORIENTED_EDGE('',*,*,#144,.F.);
#169 = ORIENTED_EDGE('',*,*,#161,.F.);
#170 = ORIENTED_EDGE('',*,*,#171,.T.);
#171 = EDGE_CURVE('',#162,#162,#172,.T.);
#172 = CIRCLE('',#173,20.);
#173 = AXIS2_PLACEMENT_3D('',#174,#175,#176);
#174 = CARTESIAN_POINT('',(0.,7.5,0.));
#175 = DIRECTION('',(0.,-1.,0.));
#176 = DIRECTION('',(1.,0.,0.));
#177 = CYLINDRICAL_SURFACE('',#178,20.);
#178 = AXIS2_PLACEMENT_3D('',#179,#180,#181);
#179 = CARTESIAN_POINT('',(0.,0.,0.));
#180 = DIRECTION('',(0.,1.,0.));
#181 = DIRECTION('',(1.,0.,0.));
#182 = ADVANCED_FACE('',(#183),#235,.F.);
#183 = FACE_BOUND('',#184,.F.);
#184 = EDGE_LOOP('',(#185,#193,#194,#195,#196,#197,#198,#213,#222));
#185 = ORIENTED_EDGE('',*,*,#186,.T.);
#186 = EDGE_CURVE('',#187,#58,#189,.T.);
#187 = VERTEX_POINT('',#188);
#188 = CARTESIAN_POINT('',(29.899093259663,0.427362881683,2.4585));
#189 = LINE('',#190,#191);
#190 = CARTESIAN_POINT('',(21.45,0.427362881683,2.4585));
#191 = VECTOR('',#192,1.);
#192 = DIRECTION('',(-1.,0.,4.440892098501E-16));
#193 = ORIENTED_EDGE('',*,*,#57,.F.);
#194 = ORIENTED_EDGE('',*,*,#118,.F.);
#195 = ORIENTED_EDGE('',*,*,#103,.F.);
#196 = ORIENTED_EDGE('',*,*,#72,.F.);
#197 = ORIENTED_EDGE('',*,*,#186,.F.);
#198 = ORIENTED_EDGE('',*,*,#199,.T.);
#199 = EDGE_CURVE('',#187,#200,#202,.T.);
#200 = VERTEX_POINT('',#201);
#201 = CARTESIAN_POINT('',(30.,2.885862881683,-1.33226762955E-14));
#202 = B_SPLINE_CURVE_WITH_KNOTS('',3,(#203,#204,#205,#206,#207,#208,
    #209,#210,#211,#212),.UNSPECIFIED.,.F.,.F.,(4,2,2,2,4),(
    0.741224101038,0.833877184567,0.926530268097,1.019183209827,
    1.111836151557),.UNSPECIFIED.);
#203 = CARTESIAN_POINT('',(29.899093259663,0.427362881683,2.4585));
#204 = CARTESIAN_POINT('',(29.899093259663,0.736206493448,2.4585));
#205 = CARTESIAN_POINT('',(29.904371372761,1.065541110412,2.396749161675
    ));
#206 = CARTESIAN_POINT('',(29.923424687808,1.671223564627,2.145807225972
    ));
#207 = CARTESIAN_POINT('',(29.936923623145,1.947583205779,1.956623718998
    ));
#208 = CARTESIAN_POINT('',(29.962254611434,2.383986266737,1.52022065804)
  );
#209 = CARTESIAN_POINT('',(29.975733742836,2.573170032583,1.243860869267
    ));
#210 = CARTESIAN_POINT('',(29.99474174279,2.824112166546,0.638177926271)
  );
#211 = CARTESIAN_POINT('',(30.,2.885862881683,0.308843139099));
#212 = CARTESIAN_POINT('',(30.,2.885862881683,-1.096345236817E-14));
#213 = ORIENTED_EDGE('',*,*,#214,.T.);
#214 = EDGE_CURVE('',#200,#215,#217,.T.);
#215 = VERTEX_POINT('',#216);
#216 = CARTESIAN_POINT('',(30.,-2.031137118317,-1.33226762955E-14));
#217 = CIRCLE('',#218,2.4585);
#218 = AXIS2_PLACEMENT_3D('',#219,#220,#221);
#219 = CARTESIAN_POINT('',(30.,0.427362881683,-1.142315408931E-14));
#220 = DIRECTION('',(-1.,0.,4.440892098501E-16));
#221 = DIRECTION('',(-4.440892098501E-16,0.,-1.));
#222 = ORIENTED_EDGE('',*,*,#223,.T.);
#223 = EDGE_CURVE('',#215,#187,#224,.T.);
#224 = B_SPLINE_CURVE_WITH_KNOTS('',3,(#225,#226,#227,#228,#229,#230,
    #231,#232,#233,#234),.UNSPECIFIED.,.F.,.F.,(4,2,2,2,4),(
    0.370612050519,0.463264992249,0.555917933978,0.648571017508,
    0.741224101038),.UNSPECIFIED.);
#225 = CARTESIAN_POINT('',(30.,-2.031137118317,-1.165734175856E-14));
#226 = CARTESIAN_POINT('',(30.,-2.031137118317,0.308843139099));
#227 = CARTESIAN_POINT('',(29.99474174279,-1.96938640318,0.638177926271)
  );
#228 = CARTESIAN_POINT('',(29.975733742836,-1.718444269217,
    1.243860869267));
#229 = CARTESIAN_POINT('',(29.962254611434,-1.529260503371,1.52022065804
    ));
#230 = CARTESIAN_POINT('',(29.936923623145,-1.092857442413,
    1.956623718998));
#231 = CARTESIAN_POINT('',(29.923424687808,-0.816497801261,
    2.145807225972));
#232 = CARTESIAN_POINT('',(29.904371372761,-0.210815347046,
    2.396749161675));
#233 = CARTESIAN_POINT('',(29.899093259663,0.118519269918,2.4585));
#234 = CARTESIAN_POINT('',(29.899093259663,0.427362881683,2.4585));
#235 = CYLINDRICAL_SURFACE('',#236,2.4585);
#236 = AXIS2_PLACEMENT_3D('',#237,#238,#239);
#237 = CARTESIAN_POINT('',(21.45,0.427362881683,-7.626191345089E-15));
#238 = DIRECTION('',(1.,0.,-4.440892098501E-16));
#239 = DIRECTION('',(-4.440892098501E-16,0.,-1.));
#240 = ADVANCED_FACE('',(#241),#282,.T.);
#241 = FACE_BOUND('',#242,.T.);
#242 = EDGE_LOOP('',(#243,#244,#252,#260,#268,#276));
#243 = ORIENTED_EDGE('',*,*,#214,.T.);
#244 = ORIENTED_EDGE('',*,*,#245,.T.);
#245 = EDGE_CURVE('',#215,#246,#248,.T.);
#246 = VERTEX_POINT('',#247);
#247 = CARTESIAN_POINT('',(30.,-7.5,-1.33226762955E-14));
#248 = LINE('',#249,#250);
#249 = CARTESIAN_POINT('',(30.,0.,-1.33226762955E-14));
#250 = VECTOR('',#251,1.);
#251 = DIRECTION('',(0.,-1.,0.));
#252 = ORIENTED_EDGE('',*,*,#253,.F.);
#253 = EDGE_CURVE('',#254,#246,#256,.T.);
#254 = VERTEX_POINT('',#255);
#255 = CARTESIAN_POINT('',(30.,-7.5,-110.));
#256 = LINE('',#257,#258);
#257 = CARTESIAN_POINT('',(30.,-7.5,30.));
#258 = VECTOR('',#259,1.);
#259 = DIRECTION('',(4.440892098501E-16,0.,1.));
#260 = ORIENTED_EDGE('',*,*,#261,.T.);
#261 = EDGE_CURVE('',#254,#262,#264,.T.);
#262 = VERTEX_POINT('',#263);
#263 = CARTESIAN_POINT('',(30.,7.5,-110.));
#264 = LINE('',#265,#266);
#265 = CARTESIAN_POINT('',(30.,0.,-110.));
#266 = VECTOR('',#267,1.);
#267 = DIRECTION('',(0.,1.,0.));
#268 = ORIENTED_EDGE('',*,*,#269,.F.);
#269 = EDGE_CURVE('',#270,#262,#272,.T.);
#270 = VERTEX_POINT('',#271);
#271 = CARTESIAN_POINT('',(30.,7.5,-1.33226762955E-14));
#272 = LINE('',#273,#274);
#273 = CARTESIAN_POINT('',(30.,7.5,30.));
#274 = VECTOR('',#275,1.);
#275 = DIRECTION('',(-4.440892098501E-16,0.,-1.));
#276 = ORIENTED_EDGE('',*,*,#277,.T.);
#277 = EDGE_CURVE('',#270,#200,#278,.T.);
#278 = LINE('',#279,#280);
#279 = CARTESIAN_POINT('',(30.,0.,-1.33226762955E-14));
#280 = VECTOR('',#281,1.);
#281 = DIRECTION('',(0.,-1.,0.));
#282 = PLANE('',#283);
#283 = AXIS2_PLACEMENT_3D('',#284,#285,#286);
#284 = CARTESIAN_POINT('',(30.,0.,-1.33226762955E-14));
#285 = DIRECTION('',(1.,0.,-4.440892098501E-16));
#286 = DIRECTION('',(-4.440892098501E-16,0.,-1.));
#287 = ADVANCED_FACE('',(#288,#314,#325,#336),#347,.F.);
#288 = FACE_BOUND('',#289,.T.);
#289 = EDGE_LOOP('',(#290,#291,#300,#308));
#290 = ORIENTED_EDGE('',*,*,#253,.T.);
#291 = ORIENTED_EDGE('',*,*,#292,.T.);
#292 = EDGE_CURVE('',#246,#293,#295,.T.);
#293 = VERTEX_POINT('',#294);
#294 = CARTESIAN_POINT('',(-30.,-7.5,1.522591576629E-14));
#295 = CIRCLE('',#296,30.);
#296 = AXIS2_PLACEMENT_3D('',#297,#298,#299);
#297 = CARTESIAN_POINT('',(0.,-7.5,0.));
#298 = DIRECTION('',(0.,-1.,0.));
#299 = DIRECTION('',(-1.,0.,0.));
#300 = ORIENTED_EDGE('',*,*,#301,.T.);
#301 = EDGE_CURVE('',#293,#302,#304,.T.);
#302 = VERTEX_POINT('',#303);
#303 = CARTESIAN_POINT('',(-30.,-7.5,-110.));
#304 = LINE('',#305,#306);
#305 = CARTESIAN_POINT('',(-30.,-7.5,-110.));
#306 = VECTOR('',#307,1.);
#307 = DIRECTION('',(-5.075305255429E-16,0.,-1.));
#308 = ORIENTED_EDGE('',*,*,#309,.T.);
#309 = EDGE_CURVE('',#302,#254,#310,.T.);
#310 = LINE('',#311,#312);
#311 = CARTESIAN_POINT('',(30.,-7.5,-110.));
#312 = VECTOR('',#313,1.);
#313 = DIRECTION('',(1.,0.,-5.921189464668E-16));
#314 = FACE_BOUND('',#315,.T.);
#315 = EDGE_LOOP('',(#316));
#316 = ORIENTED_EDGE('',*,*,#317,.T.);
#317 = EDGE_CURVE('',#318,#318,#320,.T.);
#318 = VERTEX_POINT('',#319);
#319 = CARTESIAN_POINT('',(-6.5,-7.5,-50.));
#320 = CIRCLE('',#321,6.5);
#321 = AXIS2_PLACEMENT_3D('',#322,#323,#324);
#322 = CARTESIAN_POINT('',(-2.01473668936E-14,-7.5,-50.));
#323 = DIRECTION('',(-0.,1.,0.));
#324 = DIRECTION('',(1.,0.,0.));
#325 = FACE_BOUND('',#326,.T.);
#326 = EDGE_LOOP('',(#327));
#327 = ORIENTED_EDGE('',*,*,#328,.T.);
#328 = EDGE_CURVE('',#329,#329,#331,.T.);
#329 = VERTEX_POINT('',#330);
#330 = CARTESIAN_POINT('',(-6.5,-7.5,-90.));
#331 = CIRCLE('',#332,6.5);
#332 = AXIS2_PLACEMENT_3D('',#333,#334,#335);
#333 = CARTESIAN_POINT('',(-3.707301304133E-14,-7.5,-90.));
#334 = DIRECTION('',(-0.,1.,0.));
#335 = DIRECTION('',(1.,0.,0.));
#336 = FACE_BOUND('',#337,.T.);
#337 = EDGE_LOOP('',(#338));
#338 = ORIENTED_EDGE('',*,*,#339,.T.);
#339 = EDGE_CURVE('',#340,#340,#342,.T.);
#340 = VERTEX_POINT('',#341);
#341 = CARTESIAN_POINT('',(-20.,-7.5,2.449293598295E-15));
#342 = CIRCLE('',#343,20.);
#343 = AXIS2_PLACEMENT_3D('',#344,#345,#346);
#344 = CARTESIAN_POINT('',(0.,-7.5,0.));
#345 = DIRECTION('',(-0.,1.,0.));
#346 = DIRECTION('',(1.,0.,0.));
#347 = PLANE('',#348);
#348 = AXIS2_PLACEMENT_3D('',#349,#350,#351);
#349 = CARTESIAN_POINT('',(-2.886579864025E-14,-7.5,-40.));
#350 = DIRECTION('',(0.,1.,0.));
#351 = DIRECTION('',(0.,-0.,1.));
#352 = ADVANCED_FACE('',(#353),#364,.F.);
#353 = FACE_BOUND('',#354,.F.);
#354 = EDGE_LOOP('',(#355,#361,#362,#363));
#355 = ORIENTED_EDGE('',*,*,#356,.T.);
#356 = EDGE_CURVE('',#33,#340,#357,.T.);
#357 = LINE('',#358,#359);
#358 = CARTESIAN_POINT('',(-20.,0.,2.449293598295E-15));
#359 = VECTOR('',#360,1.);
#360 = DIRECTION('',(0.,-1.,0.));
#361 = ORIENTED_EDGE('',*,*,#339,.T.);
#362 = ORIENTED_EDGE('',*,*,#356,.F.);
#363 = ORIENTED_EDGE('',*,*,#32,.F.);
#364 = CYLINDRICAL_SURFACE('',#365,20.);
#365 = AXIS2_PLACEMENT_3D('',#366,#367,#368);
#366 = CARTESIAN_POINT('',(0.,0.,0.));
#367 = DIRECTION('',(0.,1.,0.));
#368 = DIRECTION('',(1.,0.,0.));
#369 = ADVANCED_FACE('',(#370),#389,.F.);
#370 = FACE_BOUND('',#371,.F.);
#371 = EDGE_LOOP('',(#372,#380,#381,#382));
#372 = ORIENTED_EDGE('',*,*,#373,.T.);
#373 = EDGE_CURVE('',#374,#329,#376,.T.);
#374 = VERTEX_POINT('',#375);
#375 = CARTESIAN_POINT('',(-6.5,7.5,-90.));
#376 = LINE('',#377,#378);
#377 = CARTESIAN_POINT('',(-6.5,0.,-90.));
#378 = VECTOR('',#379,1.);
#379 = DIRECTION('',(0.,-1.,0.));
#380 = ORIENTED_EDGE('',*,*,#328,.T.);
#381 = ORIENTED_EDGE('',*,*,#373,.F.);
#382 = ORIENTED_EDGE('',*,*,#383,.T.);
#383 = EDGE_CURVE('',#374,#374,#384,.T.);
#384 = CIRCLE('',#385,6.5);
#385 = AXIS2_PLACEMENT_3D('',#386,#387,#388);
#386 = CARTESIAN_POINT('',(-3.707301304133E-14,7.5,-90.));
#387 = DIRECTION('',(0.,-1.,0.));
#388 = DIRECTION('',(1.,0.,0.));
#389 = CYLINDRICAL_SURFACE('',#390,6.5);
#390 = AXIS2_PLACEMENT_3D('',#391,#392,#393);
#391 = CARTESIAN_POINT('',(-3.707301304133E-14,0.,-90.));
#392 = DIRECTION('',(0.,1.,0.));
#393 = DIRECTION('',(1.,0.,0.));
#394 = ADVANCED_FACE('',(#395),#414,.F.);
#395 = FACE_BOUND('',#396,.F.);
#396 = EDGE_LOOP('',(#397,#405,#406,#407));
#397 = ORIENTED_EDGE('',*,*,#398,.T.);
#398 = EDGE_CURVE('',#399,#318,#401,.T.);
#399 = VERTEX_POINT('',#400);
#400 = CARTESIAN_POINT('',(-6.5,7.5,-50.));
#401 = LINE('',#402,#403);
#402 = CARTESIAN_POINT('',(-6.5,0.,-50.));
#403 = VECTOR('',#404,1.);
#404 = DIRECTION('',(0.,-1.,0.));
#405 = ORIENTED_EDGE('',*,*,#317,.T.);
#406 = ORIENTED_EDGE('',*,*,#398,.F.);
#407 = ORIENTED_EDGE('',*,*,#408,.T.);
#408 = EDGE_CURVE('',#399,#399,#409,.T.);
#409 = CIRCLE('',#410,6.5);
#410 = AXIS2_PLACEMENT_3D('',#411,#412,#413);
#411 = CARTESIAN_POINT('',(-2.01473668936E-14,7.5,-50.));
#412 = DIRECTION('',(0.,-1.,0.));
#413 = DIRECTION('',(1.,0.,0.));
#414 = CYLINDRICAL_SURFACE('',#415,6.5);
#415 = AXIS2_PLACEMENT_3D('',#416,#417,#418);
#416 = CARTESIAN_POINT('',(-2.01473668936E-14,0.,-50.));
#417 = DIRECTION('',(0.,1.,0.));
#418 = DIRECTION('',(1.,0.,0.));
#419 = ADVANCED_FACE('',(#420),#442,.T.);
#420 = FACE_BOUND('',#421,.T.);
#421 = EDGE_LOOP('',(#422,#423,#424,#425,#434,#440,#441));
#422 = ORIENTED_EDGE('',*,*,#223,.T.);
#423 = ORIENTED_EDGE('',*,*,#199,.T.);
#424 = ORIENTED_EDGE('',*,*,#277,.F.);
#425 = ORIENTED_EDGE('',*,*,#426,.F.);
#426 = EDGE_CURVE('',#427,#270,#429,.T.);
#427 = VERTEX_POINT('',#428);
#428 = CARTESIAN_POINT('',(-30.,7.5,1.522591576629E-14));
#429 = CIRCLE('',#430,30.);
#430 = AXIS2_PLACEMENT_3D('',#431,#432,#433);
#431 = CARTESIAN_POINT('',(0.,7.5,0.));
#432 = DIRECTION('',(0.,1.,0.));
#433 = DIRECTION('',(-1.,0.,0.));
#434 = ORIENTED_EDGE('',*,*,#435,.F.);
#435 = EDGE_CURVE('',#293,#427,#436,.T.);
#436 = LINE('',#437,#438);
#437 = CARTESIAN_POINT('',(-30.,0.,1.522591576629E-14));
#438 = VECTOR('',#439,1.);
#439 = DIRECTION('',(0.,1.,0.));
#440 = ORIENTED_EDGE('',*,*,#292,.F.);
#441 = ORIENTED_EDGE('',*,*,#245,.F.);
#442 = CYLINDRICAL_SURFACE('',#443,30.);
#443 = AXIS2_PLACEMENT_3D('',#444,#445,#446);
#444 = CARTESIAN_POINT('',(0.,0.,0.));
#445 = DIRECTION('',(0.,1.,0.));
#446 = DIRECTION('',(-1.,0.,0.));
#447 = ADVANCED_FACE('',(#448),#466,.T.);
#448 = FACE_BOUND('',#449,.T.);
#449 = EDGE_LOOP('',(#450,#451,#459,#465));
#450 = ORIENTED_EDGE('',*,*,#435,.T.);
#451 = ORIENTED_EDGE('',*,*,#452,.F.);
#452 = EDGE_CURVE('',#453,#427,#455,.T.);
#453 = VERTEX_POINT('',#454);
#454 = CARTESIAN_POINT('',(-30.,7.5,-110.));
#455 = LINE('',#456,#457);
#456 = CARTESIAN_POINT('',(-30.,7.5,-110.));
#457 = VECTOR('',#458,1.);
#458 = DIRECTION('',(5.075305255429E-16,0.,1.));
#459 = ORIENTED_EDGE('',*,*,#460,.F.);
#460 = EDGE_CURVE('',#302,#453,#461,.T.);
#461 = LINE('',#462,#463);
#462 = CARTESIAN_POINT('',(-30.,0.,-110.));
#463 = VECTOR('',#464,1.);
#464 = DIRECTION('',(0.,1.,0.));
#465 = ORIENTED_EDGE('',*,*,#301,.F.);
#466 = PLANE('',#467);
#467 = AXIS2_PLACEMENT_3D('',#468,#469,#470);
#468 = CARTESIAN_POINT('',(-30.,0.,-110.));
#469 = DIRECTION('',(-1.,0.,5.075305255429E-16));
#470 = DIRECTION('',(5.075305255429E-16,0.,1.));
#471 = ADVANCED_FACE('',(#472),#483,.T.);
#472 = FACE_BOUND('',#473,.T.);
#473 = EDGE_LOOP('',(#474,#475,#481,#482));
#474 = ORIENTED_EDGE('',*,*,#460,.T.);
#475 = ORIENTED_EDGE('',*,*,#476,.F.);
#476 = EDGE_CURVE('',#262,#453,#477,.T.);
#477 = LINE('',#478,#479);
#478 = CARTESIAN_POINT('',(30.,7.5,-110.));
#479 = VECTOR('',#480,1.);
#480 = DIRECTION('',(-1.,0.,5.921189464668E-16));
#481 = ORIENTED_EDGE('',*,*,#261,.F.);
#482 = ORIENTED_EDGE('',*,*,#309,.F.);
#483 = PLANE('',#484);
#484 = AXIS2_PLACEMENT_3D('',#485,#486,#487);
#485 = CARTESIAN_POINT('',(30.,0.,-110.));
#486 = DIRECTION('',(-5.921189464668E-16,0.,-1.));
#487 = DIRECTION('',(-1.,0.,5.921189464668E-16));
#488 = ADVANCED_FACE('',(#489,#495,#498,#501),#504,.T.);
#489 = FACE_BOUND('',#490,.T.);
#490 = EDGE_LOOP('',(#491,#492,#493,#494));
#491 = ORIENTED_EDGE('',*,*,#269,.T.);
#492 = ORIENTED_EDGE('',*,*,#476,.T.);
#493 = ORIENTED_EDGE('',*,*,#452,.T.);
#494 = ORIENTED_EDGE('',*,*,#426,.T.);
#495 = FACE_BOUND('',#496,.T.);
#496 = EDGE_LOOP('',(#497));
#497 = ORIENTED_EDGE('',*,*,#408,.T.);
#498 = FACE_BOUND('',#499,.T.);
#499 = EDGE_LOOP('',(#500));
#500 = ORIENTED_EDGE('',*,*,#383,.T.);
#501 = FACE_BOUND('',#502,.T.);
#502 = EDGE_LOOP('',(#503));
#503 = ORIENTED_EDGE('',*,*,#171,.T.);
#504 = PLANE('',#505);
#505 = AXIS2_PLACEMENT_3D('',#506,#507,#508);
#506 = CARTESIAN_POINT('',(-2.886579864025E-14,7.5,-40.));
#507 = DIRECTION('',(0.,1.,0.));
#508 = DIRECTION('',(0.,-0.,1.));
#509 = ( GEOMETRIC_REPRESENTATION_CONTEXT(3) 
GLOBAL_UNCERTAINTY_ASSIGNED_CONTEXT((#513)) GLOBAL_UNIT_ASSIGNED_CONTEXT
((#510,#511,#512)) REPRESENTATION_CONTEXT('Context #1',
  '3D Context with UNIT and UNCERTAINTY') );
#510 = ( LENGTH_UNIT() NAMED_UNIT(*) SI_UNIT(.MILLI.,.METRE.) );
#511 = ( NAMED_UNIT(*) PLANE_ANGLE_UNIT() SI_UNIT($,.RADIAN.) );
#512 = ( NAMED_UNIT(*) SI_UNIT($,.STERADIAN.) SOLID_ANGLE_UNIT() );
#513 = UNCERTAINTY_MEASURE_WITH_UNIT(LENGTH_MEASURE(2.E-04),#510,
  'distance_accuracy_value','confusion accuracy');
#514 = PRODUCT_RELATED_PRODUCT_CATEGORY('part',$,(#7));
#515 = MECHANICAL_DESIGN_GEOMETRIC_PRESENTATION_REPRESENTATION('',(#516)
  ,#509);
#516 = STYLED_ITEM('color',(#517),#15);
#517 = PRESENTATION_STYLE_ASSIGNMENT((#518,#524));
#518 = SURFACE_STYLE_USAGE(.BOTH.,#519);
#519 = SURFACE_SIDE_STYLE('',(#520));
#520 = SURFACE_STYLE_FILL_AREA(#521);
#521 = FILL_AREA_STYLE('',(#522));
#522 = FILL_AREA_STYLE_COLOUR('',#523);
#523 = COLOUR_RGB('',0.745098043297,0.737254912529,0.729411790161);
#524 = CURVE_STYLE('',#525,POSITIVE_LENGTH_MEASURE(0.1),#526);
#525 = DRAUGHTING_PRE_DEFINED_CURVE_FONT('continuous');
#526 = COLOUR_RGB('',9.803921802644E-02,9.803921802644E-02,
  9.803921802644E-02);
ENDSEC;
END-ISO-10303-21;
