ISO-10303-21;
HEADER;
/* Generated by software containing ST-Developer
 * from STEP Tools, Inc. (www.steptools.com) 
 */

FILE_DESCRIPTION(
/* description */ (''),
/* implementation_level */ '2;1');

FILE_NAME(
/* name */ 'Pion centrage v1.step',
/* time_stamp */ '2024-09-02T11:53:59+02:00',
/* author */ (''),
/* organization */ (''),
/* preprocessor_version */ 'ST-DEVELOPER v20',
/* originating_system */ 'Autodesk Translation Framework v13.14.0.145',

/* authorisation */ '');

FILE_SCHEMA (('AUTOMOTIVE_DESIGN { 1 0 10303 214 3 1 1 }'));
ENDSEC;

DATA;
#10=MECHANICAL_DESIGN_GEOMETRIC_PRESENTATION_REPRESENTATION('',(#13),#391);
#11=SHAPE_REPRESENTATION_RELATIONSHIP('SRR','None',#398,#12);
#12=ADVANCED_BREP_SHAPE_REPRESENTATION('',(#14),#390);
#13=STYLED_ITEM('',(#407),#14);
#14=MANIFOLD_SOLID_BREP('Body1',#216);
#15=FACE_BOUND('',#41,.T.);
#16=FACE_BOUND('',#49,.T.);
#17=PLANE('',#237);
#18=PLANE('',#243);
#19=PLANE('',#244);
#20=PLANE('',#246);
#21=PLANE('',#247);
#22=PLANE('',#250);
#23=CYLINDRICAL_SURFACE('',#234,3.);
#24=CYLINDRICAL_SURFACE('',#241,3.3);
#25=CYLINDRICAL_SURFACE('',#256,17.5);
#26=FACE_OUTER_BOUND('',#38,.T.);
#27=FACE_OUTER_BOUND('',#39,.T.);
#28=FACE_OUTER_BOUND('',#40,.T.);
#29=FACE_OUTER_BOUND('',#42,.T.);
#30=FACE_OUTER_BOUND('',#43,.T.);
#31=FACE_OUTER_BOUND('',#44,.T.);
#32=FACE_OUTER_BOUND('',#45,.T.);
#33=FACE_OUTER_BOUND('',#46,.T.);
#34=FACE_OUTER_BOUND('',#47,.T.);
#35=FACE_OUTER_BOUND('',#48,.T.);
#36=FACE_OUTER_BOUND('',#50,.T.);
#37=FACE_OUTER_BOUND('',#51,.T.);
#38=EDGE_LOOP('',(#143,#144,#145,#146,#147));
#39=EDGE_LOOP('',(#148,#149,#150,#151,#152,#153));
#40=EDGE_LOOP('',(#154));
#41=EDGE_LOOP('',(#155));
#42=EDGE_LOOP('',(#156,#157,#158,#159,#160));
#43=EDGE_LOOP('',(#161,#162,#163,#164));
#44=EDGE_LOOP('',(#165,#166,#167,#168));
#45=EDGE_LOOP('',(#169,#170));
#46=EDGE_LOOP('',(#171,#172,#173,#174));
#47=EDGE_LOOP('',(#175,#176,#177));
#48=EDGE_LOOP('',(#178,#179,#180,#181));
#49=EDGE_LOOP('',(#182));
#50=EDGE_LOOP('',(#183,#184,#185,#186,#187));
#51=EDGE_LOOP('',(#188,#189,#190,#191,#192,#193,#194,#195,#196,#197,#198,
#199,#200));
#52=LINE('',#332,#66);
#53=LINE('',#338,#67);
#54=LINE('',#348,#68);
#55=LINE('',#352,#69);
#56=LINE('',#356,#70);
#57=LINE('',#358,#71);
#58=LINE('',#360,#72);
#59=LINE('',#361,#73);
#60=LINE('',#367,#74);
#61=LINE('',#369,#75);
#62=LINE('',#371,#76);
#63=LINE('',#372,#77);
#64=LINE('',#382,#78);
#65=LINE('',#387,#79);
#66=VECTOR('',#263,3.25);
#67=VECTOR('',#270,3.);
#68=VECTOR('',#283,1.65);
#69=VECTOR('',#288,3.3);
#70=VECTOR('',#291,10.);
#71=VECTOR('',#292,10.);
#72=VECTOR('',#293,10.);
#73=VECTOR('',#294,10.);
#74=VECTOR('',#301,10.);
#75=VECTOR('',#302,10.);
#76=VECTOR('',#303,10.);
#77=VECTOR('',#304,10.);
#78=VECTOR('',#319,17.);
#79=VECTOR('',#326,17.5);
#80=CIRCLE('',#231,3.5);
#81=CIRCLE('',#232,3.);
#82=CIRCLE('',#233,3.);
#83=CIRCLE('',#235,3.);
#84=CIRCLE('',#236,3.);
#85=CIRCLE('',#238,16.5);
#86=CIRCLE('',#240,3.3);
#87=CIRCLE('',#242,3.3);
#88=CIRCLE('',#245,17.5);
#89=CIRCLE('',#248,17.5);
#90=CIRCLE('',#249,17.5);
#91=CIRCLE('',#251,17.5);
#92=CIRCLE('',#252,17.5);
#93=CIRCLE('',#254,17.5);
#94=CIRCLE('',#255,17.5);
#95=VERTEX_POINT('',#329);
#96=VERTEX_POINT('',#331);
#97=VERTEX_POINT('',#333);
#98=VERTEX_POINT('',#337);
#99=VERTEX_POINT('',#339);
#100=VERTEX_POINT('',#343);
#101=VERTEX_POINT('',#346);
#102=VERTEX_POINT('',#350);
#103=VERTEX_POINT('',#354);
#104=VERTEX_POINT('',#355);
#105=VERTEX_POINT('',#357);
#106=VERTEX_POINT('',#359);
#107=VERTEX_POINT('',#365);
#108=VERTEX_POINT('',#366);
#109=VERTEX_POINT('',#368);
#110=VERTEX_POINT('',#370);
#111=VERTEX_POINT('',#374);
#112=VERTEX_POINT('',#381);
#113=VERTEX_POINT('',#383);
#114=EDGE_CURVE('',#95,#95,#80,.T.);
#115=EDGE_CURVE('',#95,#96,#52,.T.);
#116=EDGE_CURVE('',#96,#97,#81,.T.);
#117=EDGE_CURVE('',#97,#96,#82,.T.);
#118=EDGE_CURVE('',#97,#98,#53,.T.);
#119=EDGE_CURVE('',#99,#98,#83,.T.);
#120=EDGE_CURVE('',#98,#99,#84,.T.);
#121=EDGE_CURVE('',#100,#100,#85,.T.);
#122=EDGE_CURVE('',#101,#101,#86,.T.);
#123=EDGE_CURVE('',#101,#99,#54,.T.);
#124=EDGE_CURVE('',#102,#102,#87,.T.);
#125=EDGE_CURVE('',#102,#101,#55,.T.);
#126=EDGE_CURVE('',#103,#104,#56,.T.);
#127=EDGE_CURVE('',#105,#103,#57,.T.);
#128=EDGE_CURVE('',#105,#106,#58,.T.);
#129=EDGE_CURVE('',#104,#106,#59,.T.);
#130=EDGE_CURVE('',#106,#105,#88,.T.);
#131=EDGE_CURVE('',#107,#108,#60,.T.);
#132=EDGE_CURVE('',#109,#107,#61,.T.);
#133=EDGE_CURVE('',#109,#110,#62,.T.);
#134=EDGE_CURVE('',#108,#110,#63,.T.);
#135=EDGE_CURVE('',#110,#111,#89,.T.);
#136=EDGE_CURVE('',#111,#109,#90,.T.);
#137=EDGE_CURVE('',#107,#104,#91,.T.);
#138=EDGE_CURVE('',#103,#108,#92,.T.);
#139=EDGE_CURVE('',#100,#112,#64,.T.);
#140=EDGE_CURVE('',#112,#113,#93,.T.);
#141=EDGE_CURVE('',#113,#112,#94,.T.);
#142=EDGE_CURVE('',#113,#111,#65,.T.);
#143=ORIENTED_EDGE('',*,*,#114,.T.);
#144=ORIENTED_EDGE('',*,*,#115,.T.);
#145=ORIENTED_EDGE('',*,*,#116,.T.);
#146=ORIENTED_EDGE('',*,*,#117,.T.);
#147=ORIENTED_EDGE('',*,*,#115,.F.);
#148=ORIENTED_EDGE('',*,*,#116,.F.);
#149=ORIENTED_EDGE('',*,*,#117,.F.);
#150=ORIENTED_EDGE('',*,*,#118,.T.);
#151=ORIENTED_EDGE('',*,*,#119,.F.);
#152=ORIENTED_EDGE('',*,*,#120,.F.);
#153=ORIENTED_EDGE('',*,*,#118,.F.);
#154=ORIENTED_EDGE('',*,*,#121,.F.);
#155=ORIENTED_EDGE('',*,*,#114,.F.);
#156=ORIENTED_EDGE('',*,*,#122,.F.);
#157=ORIENTED_EDGE('',*,*,#123,.T.);
#158=ORIENTED_EDGE('',*,*,#119,.T.);
#159=ORIENTED_EDGE('',*,*,#120,.T.);
#160=ORIENTED_EDGE('',*,*,#123,.F.);
#161=ORIENTED_EDGE('',*,*,#124,.F.);
#162=ORIENTED_EDGE('',*,*,#125,.T.);
#163=ORIENTED_EDGE('',*,*,#122,.T.);
#164=ORIENTED_EDGE('',*,*,#125,.F.);
#165=ORIENTED_EDGE('',*,*,#126,.F.);
#166=ORIENTED_EDGE('',*,*,#127,.F.);
#167=ORIENTED_EDGE('',*,*,#128,.T.);
#168=ORIENTED_EDGE('',*,*,#129,.F.);
#169=ORIENTED_EDGE('',*,*,#130,.F.);
#170=ORIENTED_EDGE('',*,*,#128,.F.);
#171=ORIENTED_EDGE('',*,*,#131,.F.);
#172=ORIENTED_EDGE('',*,*,#132,.F.);
#173=ORIENTED_EDGE('',*,*,#133,.T.);
#174=ORIENTED_EDGE('',*,*,#134,.F.);
#175=ORIENTED_EDGE('',*,*,#135,.F.);
#176=ORIENTED_EDGE('',*,*,#133,.F.);
#177=ORIENTED_EDGE('',*,*,#136,.F.);
#178=ORIENTED_EDGE('',*,*,#126,.T.);
#179=ORIENTED_EDGE('',*,*,#137,.F.);
#180=ORIENTED_EDGE('',*,*,#131,.T.);
#181=ORIENTED_EDGE('',*,*,#138,.F.);
#182=ORIENTED_EDGE('',*,*,#124,.T.);
#183=ORIENTED_EDGE('',*,*,#121,.T.);
#184=ORIENTED_EDGE('',*,*,#139,.T.);
#185=ORIENTED_EDGE('',*,*,#140,.T.);
#186=ORIENTED_EDGE('',*,*,#141,.T.);
#187=ORIENTED_EDGE('',*,*,#139,.F.);
#188=ORIENTED_EDGE('',*,*,#140,.F.);
#189=ORIENTED_EDGE('',*,*,#141,.F.);
#190=ORIENTED_EDGE('',*,*,#142,.T.);
#191=ORIENTED_EDGE('',*,*,#136,.T.);
#192=ORIENTED_EDGE('',*,*,#132,.T.);
#193=ORIENTED_EDGE('',*,*,#137,.T.);
#194=ORIENTED_EDGE('',*,*,#129,.T.);
#195=ORIENTED_EDGE('',*,*,#130,.T.);
#196=ORIENTED_EDGE('',*,*,#127,.T.);
#197=ORIENTED_EDGE('',*,*,#138,.T.);
#198=ORIENTED_EDGE('',*,*,#134,.T.);
#199=ORIENTED_EDGE('',*,*,#135,.T.);
#200=ORIENTED_EDGE('',*,*,#142,.F.);
#201=CONICAL_SURFACE('',#230,3.25,0.523598775598299);
#202=CONICAL_SURFACE('',#239,1.65,1.02974425867665);
#203=CONICAL_SURFACE('',#253,17.,0.523598775598297);
#204=ADVANCED_FACE('',(#26),#201,.F.);
#205=ADVANCED_FACE('',(#27),#23,.F.);
#206=ADVANCED_FACE('',(#28,#15),#17,.T.);
#207=ADVANCED_FACE('',(#29),#202,.F.);
#208=ADVANCED_FACE('',(#30),#24,.F.);
#209=ADVANCED_FACE('',(#31),#18,.F.);
#210=ADVANCED_FACE('',(#32),#19,.T.);
#211=ADVANCED_FACE('',(#33),#20,.F.);
#212=ADVANCED_FACE('',(#34),#21,.T.);
#213=ADVANCED_FACE('',(#35,#16),#22,.T.);
#214=ADVANCED_FACE('',(#36),#203,.T.);
#215=ADVANCED_FACE('',(#37),#25,.T.);
#216=CLOSED_SHELL('',(#204,#205,#206,#207,#208,#209,#210,#211,#212,#213,
#214,#215));
#217=DERIVED_UNIT_ELEMENT(#219,1.);
#218=DERIVED_UNIT_ELEMENT(#393,-3.);
#219=(
MASS_UNIT()
NAMED_UNIT(*)
SI_UNIT(.KILO.,.GRAM.)
);
#220=DERIVED_UNIT((#217,#218));
#221=MEASURE_REPRESENTATION_ITEM('density measure',
POSITIVE_RATIO_MEASURE(7850.),#220);
#222=PROPERTY_DEFINITION_REPRESENTATION(#227,#224);
#223=PROPERTY_DEFINITION_REPRESENTATION(#228,#225);
#224=REPRESENTATION('material name',(#226),#390);
#225=REPRESENTATION('density',(#221),#390);
#226=DESCRIPTIVE_REPRESENTATION_ITEM('Steel','Steel');
#227=PROPERTY_DEFINITION('material property','material name',#400);
#228=PROPERTY_DEFINITION('material property','density of part',#400);
#229=AXIS2_PLACEMENT_3D('',#327,#257,#258);
#230=AXIS2_PLACEMENT_3D('',#328,#259,#260);
#231=AXIS2_PLACEMENT_3D('',#330,#261,#262);
#232=AXIS2_PLACEMENT_3D('',#334,#264,#265);
#233=AXIS2_PLACEMENT_3D('',#335,#266,#267);
#234=AXIS2_PLACEMENT_3D('',#336,#268,#269);
#235=AXIS2_PLACEMENT_3D('',#340,#271,#272);
#236=AXIS2_PLACEMENT_3D('',#341,#273,#274);
#237=AXIS2_PLACEMENT_3D('',#342,#275,#276);
#238=AXIS2_PLACEMENT_3D('',#344,#277,#278);
#239=AXIS2_PLACEMENT_3D('',#345,#279,#280);
#240=AXIS2_PLACEMENT_3D('',#347,#281,#282);
#241=AXIS2_PLACEMENT_3D('',#349,#284,#285);
#242=AXIS2_PLACEMENT_3D('',#351,#286,#287);
#243=AXIS2_PLACEMENT_3D('',#353,#289,#290);
#244=AXIS2_PLACEMENT_3D('',#362,#295,#296);
#245=AXIS2_PLACEMENT_3D('',#363,#297,#298);
#246=AXIS2_PLACEMENT_3D('',#364,#299,#300);
#247=AXIS2_PLACEMENT_3D('',#373,#305,#306);
#248=AXIS2_PLACEMENT_3D('',#375,#307,#308);
#249=AXIS2_PLACEMENT_3D('',#376,#309,#310);
#250=AXIS2_PLACEMENT_3D('',#377,#311,#312);
#251=AXIS2_PLACEMENT_3D('',#378,#313,#314);
#252=AXIS2_PLACEMENT_3D('',#379,#315,#316);
#253=AXIS2_PLACEMENT_3D('',#380,#317,#318);
#254=AXIS2_PLACEMENT_3D('',#384,#320,#321);
#255=AXIS2_PLACEMENT_3D('',#385,#322,#323);
#256=AXIS2_PLACEMENT_3D('',#386,#324,#325);
#257=DIRECTION('axis',(0.,0.,1.));
#258=DIRECTION('refdir',(1.,0.,0.));
#259=DIRECTION('center_axis',(0.,0.,1.));
#260=DIRECTION('ref_axis',(-1.,0.,0.));
#261=DIRECTION('center_axis',(0.,0.,1.));
#262=DIRECTION('ref_axis',(-1.,0.,0.));
#263=DIRECTION('',(-0.5,-6.12323399573677E-17,-0.866025403784439));
#264=DIRECTION('center_axis',(0.,0.,-1.));
#265=DIRECTION('ref_axis',(-1.,0.,0.));
#266=DIRECTION('center_axis',(0.,0.,-1.));
#267=DIRECTION('ref_axis',(-1.,0.,0.));
#268=DIRECTION('center_axis',(0.,0.,-1.));
#269=DIRECTION('ref_axis',(1.,0.,0.));
#270=DIRECTION('',(0.,0.,-1.));
#271=DIRECTION('center_axis',(0.,0.,1.));
#272=DIRECTION('ref_axis',(1.,0.,0.));
#273=DIRECTION('center_axis',(0.,0.,1.));
#274=DIRECTION('ref_axis',(1.,0.,0.));
#275=DIRECTION('center_axis',(0.,0.,1.));
#276=DIRECTION('ref_axis',(1.,0.,0.));
#277=DIRECTION('center_axis',(0.,0.,-1.));
#278=DIRECTION('ref_axis',(-1.,0.,0.));
#279=DIRECTION('center_axis',(0.,0.,-1.));
#280=DIRECTION('ref_axis',(-1.,0.,0.));
#281=DIRECTION('center_axis',(0.,0.,1.));
#282=DIRECTION('ref_axis',(-1.,0.,0.));
#283=DIRECTION('',(-0.857167300702112,-1.04972719113862E-16,0.515038074910054));
#284=DIRECTION('center_axis',(0.,0.,1.));
#285=DIRECTION('ref_axis',(-1.,0.,0.));
#286=DIRECTION('center_axis',(0.,0.,1.));
#287=DIRECTION('ref_axis',(-1.,0.,0.));
#288=DIRECTION('',(0.,0.,1.));
#289=DIRECTION('center_axis',(-1.,0.,0.));
#290=DIRECTION('ref_axis',(0.,-1.,0.));
#291=DIRECTION('',(0.,-1.,0.));
#292=DIRECTION('',(0.,0.,-1.));
#293=DIRECTION('',(0.,-1.,0.));
#294=DIRECTION('',(0.,0.,1.));
#295=DIRECTION('center_axis',(0.,0.,-1.));
#296=DIRECTION('ref_axis',(1.,0.,0.));
#297=DIRECTION('center_axis',(0.,0.,1.));
#298=DIRECTION('ref_axis',(1.,0.,0.));
#299=DIRECTION('center_axis',(1.,0.,0.));
#300=DIRECTION('ref_axis',(0.,1.,0.));
#301=DIRECTION('',(0.,1.,0.));
#302=DIRECTION('',(0.,0.,-1.));
#303=DIRECTION('',(0.,1.,0.));
#304=DIRECTION('',(0.,0.,1.));
#305=DIRECTION('center_axis',(0.,0.,-1.));
#306=DIRECTION('ref_axis',(1.,0.,0.));
#307=DIRECTION('center_axis',(0.,0.,1.));
#308=DIRECTION('ref_axis',(1.,0.,0.));
#309=DIRECTION('center_axis',(0.,0.,1.));
#310=DIRECTION('ref_axis',(1.,0.,0.));
#311=DIRECTION('center_axis',(0.,0.,-1.));
#312=DIRECTION('ref_axis',(-1.,0.,0.));
#313=DIRECTION('center_axis',(0.,0.,1.));
#314=DIRECTION('ref_axis',(1.,0.,0.));
#315=DIRECTION('center_axis',(0.,0.,1.));
#316=DIRECTION('ref_axis',(1.,0.,0.));
#317=DIRECTION('center_axis',(0.,0.,-1.));
#318=DIRECTION('ref_axis',(-1.,0.,0.));
#319=DIRECTION('',(0.499999999999999,6.12323399573675E-17,-0.866025403784439));
#320=DIRECTION('center_axis',(0.,0.,1.));
#321=DIRECTION('ref_axis',(-1.,0.,0.));
#322=DIRECTION('center_axis',(0.,0.,1.));
#323=DIRECTION('ref_axis',(-1.,0.,0.));
#324=DIRECTION('center_axis',(0.,0.,1.));
#325=DIRECTION('ref_axis',(1.,0.,0.));
#326=DIRECTION('',(0.,0.,-1.));
#327=CARTESIAN_POINT('',(0.,0.,0.));
#328=CARTESIAN_POINT('Origin',(0.,0.,24.5669872981078));
#329=CARTESIAN_POINT('',(3.5,4.28626379701574E-16,25.));
#330=CARTESIAN_POINT('Origin',(0.,0.,25.));
#331=CARTESIAN_POINT('',(3.,-3.67394039744206E-16,24.1339745962156));
#332=CARTESIAN_POINT('',(3.25,3.9801020972289E-16,24.5669872981078));
#333=CARTESIAN_POINT('',(-3.,3.67394039744206E-16,24.1339745962156));
#334=CARTESIAN_POINT('Origin',(0.,0.,24.1339745962156));
#335=CARTESIAN_POINT('Origin',(0.,0.,24.1339745962156));
#336=CARTESIAN_POINT('Origin',(0.,0.,14.));
#337=CARTESIAN_POINT('',(-3.,-3.67394039744206E-16,9.18025818570827));
#338=CARTESIAN_POINT('',(-3.,3.67394039744206E-16,14.));
#339=CARTESIAN_POINT('',(3.,3.67394039744206E-16,9.18025818570827));
#340=CARTESIAN_POINT('Origin',(0.,0.,9.18025818570827));
#341=CARTESIAN_POINT('Origin',(0.,0.,9.18025818570827));
#342=CARTESIAN_POINT('Origin',(0.,0.,25.));
#343=CARTESIAN_POINT('',(16.5,-2.02066721859313E-15,25.));
#344=CARTESIAN_POINT('Origin',(0.,0.,25.));
#345=CARTESIAN_POINT('Origin',(0.,0.,9.99142002139548));
#346=CARTESIAN_POINT('',(3.3,4.04133443718627E-16,9.));
#347=CARTESIAN_POINT('Origin',(0.,0.,9.));
#348=CARTESIAN_POINT('',(1.65,2.02066721859313E-16,9.99142002139548));
#349=CARTESIAN_POINT('Origin',(0.,0.,4.5));
#350=CARTESIAN_POINT('',(3.3,4.04133443718627E-16,0.));
#351=CARTESIAN_POINT('Origin',(0.,0.,0.));
#352=CARTESIAN_POINT('',(3.3,4.04133443718627E-16,4.5));
#353=CARTESIAN_POINT('Origin',(13.9,10.6320270880016,0.));
#354=CARTESIAN_POINT('',(13.9,10.6320270880016,0.));
#355=CARTESIAN_POINT('',(13.9,-10.6320270880016,0.));
#356=CARTESIAN_POINT('',(13.9,5.3160135440008,-1.11022302462516E-16));
#357=CARTESIAN_POINT('',(13.9,10.6320270880016,5.));
#358=CARTESIAN_POINT('',(13.9,10.6320270880016,12.5));
#359=CARTESIAN_POINT('',(13.9,-10.6320270880016,5.));
#360=CARTESIAN_POINT('',(13.9,25.,5.));
#361=CARTESIAN_POINT('',(13.9,-10.6320270880016,12.5));
#362=CARTESIAN_POINT('Origin',(15.7,0.,5.));
#363=CARTESIAN_POINT('Origin',(0.,0.,5.));
#364=CARTESIAN_POINT('Origin',(-13.9,-10.6320270880016,0.));
#365=CARTESIAN_POINT('',(-13.9,-10.6320270880016,0.));
#366=CARTESIAN_POINT('',(-13.9,10.6320270880016,0.));
#367=CARTESIAN_POINT('',(-13.9,-5.31601354400081,-1.11022302462516E-16));
#368=CARTESIAN_POINT('',(-13.9,-10.6320270880016,5.));
#369=CARTESIAN_POINT('',(-13.9,-10.6320270880016,12.5));
#370=CARTESIAN_POINT('',(-13.9,10.6320270880016,5.));
#371=CARTESIAN_POINT('',(-13.9,25.,5.));
#372=CARTESIAN_POINT('',(-13.9,10.6320270880016,12.5));
#373=CARTESIAN_POINT('Origin',(-15.7,-2.22044604925031E-15,5.));
#374=CARTESIAN_POINT('',(-17.5,-2.14313189850787E-15,5.));
#375=CARTESIAN_POINT('Origin',(0.,0.,5.));
#376=CARTESIAN_POINT('Origin',(0.,0.,5.));
#377=CARTESIAN_POINT('Origin',(17.5,0.,-1.11022302462516E-16));
#378=CARTESIAN_POINT('Origin',(0.,0.,0.));
#379=CARTESIAN_POINT('Origin',(0.,0.,0.));
#380=CARTESIAN_POINT('Origin',(0.,0.,24.1339745962156));
#381=CARTESIAN_POINT('',(17.5,2.14313189850787E-15,23.2679491924311));
#382=CARTESIAN_POINT('',(17.,2.0818995585505E-15,24.1339745962156));
#383=CARTESIAN_POINT('',(-17.5,-2.14313189850787E-15,23.2679491924311));
#384=CARTESIAN_POINT('Origin',(0.,0.,23.2679491924311));
#385=CARTESIAN_POINT('Origin',(0.,0.,23.2679491924311));
#386=CARTESIAN_POINT('Origin',(0.,0.,12.5));
#387=CARTESIAN_POINT('',(-17.5,-2.14313189850787E-15,12.5));
#388=UNCERTAINTY_MEASURE_WITH_UNIT(LENGTH_MEASURE(0.01),#392,
'DISTANCE_ACCURACY_VALUE',
'Maximum model space distance between geometric entities at asserted c
onnectivities');
#389=UNCERTAINTY_MEASURE_WITH_UNIT(LENGTH_MEASURE(0.01),#392,
'DISTANCE_ACCURACY_VALUE',
'Maximum model space distance between geometric entities at asserted c
onnectivities');
#390=(
GEOMETRIC_REPRESENTATION_CONTEXT(3)
GLOBAL_UNCERTAINTY_ASSIGNED_CONTEXT((#388))
GLOBAL_UNIT_ASSIGNED_CONTEXT((#392,#394,#395))
REPRESENTATION_CONTEXT('','3D')
);
#391=(
GEOMETRIC_REPRESENTATION_CONTEXT(3)
GLOBAL_UNCERTAINTY_ASSIGNED_CONTEXT((#389))
GLOBAL_UNIT_ASSIGNED_CONTEXT((#392,#394,#395))
REPRESENTATION_CONTEXT('','3D')
);
#392=(
LENGTH_UNIT()
NAMED_UNIT(*)
SI_UNIT(.MILLI.,.METRE.)
);
#393=(
LENGTH_UNIT()
NAMED_UNIT(*)
SI_UNIT($,.METRE.)
);
#394=(
NAMED_UNIT(*)
PLANE_ANGLE_UNIT()
SI_UNIT($,.RADIAN.)
);
#395=(
NAMED_UNIT(*)
SI_UNIT($,.STERADIAN.)
SOLID_ANGLE_UNIT()
);
#396=SHAPE_DEFINITION_REPRESENTATION(#397,#398);
#397=PRODUCT_DEFINITION_SHAPE('',$,#400);
#398=SHAPE_REPRESENTATION('',(#229),#390);
#399=PRODUCT_DEFINITION_CONTEXT('part definition',#404,'design');
#400=PRODUCT_DEFINITION('Pion centrage','Pion centrage v2',#401,#399);
#401=PRODUCT_DEFINITION_FORMATION('',$,#406);
#402=PRODUCT_RELATED_PRODUCT_CATEGORY('Pion centrage v2',
'Pion centrage v2',(#406));
#403=APPLICATION_PROTOCOL_DEFINITION('international standard',
'automotive_design',2009,#404);
#404=APPLICATION_CONTEXT(
'Core Data for Automotive Mechanical Design Process');
#405=PRODUCT_CONTEXT('part definition',#404,'mechanical');
#406=PRODUCT('Pion centrage','Pion centrage v2',$,(#405));
#407=PRESENTATION_STYLE_ASSIGNMENT((#408));
#408=SURFACE_STYLE_USAGE(.BOTH.,#409);
#409=SURFACE_SIDE_STYLE('',(#410));
#410=SURFACE_STYLE_FILL_AREA(#411);
#411=FILL_AREA_STYLE('Steel - Satin',(#412));
#412=FILL_AREA_STYLE_COLOUR('Steel - Satin',#413);
#413=COLOUR_RGB('Steel - Satin',0.627450980392157,0.627450980392157,0.627450980392157);
ENDSEC;
END-ISO-10303-21;
