ISO-10303-21;
HEADER;
/* Generated by software containing ST-Developer
 * from STEP Tools, Inc. (www.steptools.com) 
 */

FILE_DESCRIPTION(
/* description */ (''),
/* implementation_level */ '2;1');

FILE_NAME(
/* name */ 'Insert M20x1.5 sans filetage.step',
/* time_stamp */ '2024-10-23T20:06:13+02:00',
/* author */ (''),
/* organization */ (''),
/* preprocessor_version */ 'ST-DEVELOPER v20',
/* originating_system */ 'Autodesk Translation Framework v13.20.0.188',

/* authorisation */ '');

FILE_SCHEMA (('AUTOMOTIVE_DESIGN { 1 0 10303 214 3 1 1 }'));
ENDSEC;

DATA;
#10=MECHANICAL_DESIGN_GEOMETRIC_PRESENTATION_REPRESENTATION('',(#13),#412);
#11=SHAPE_REPRESENTATION_RELATIONSHIP('SRR','None',#419,#12);
#12=ADVANCED_BREP_SHAPE_REPRESENTATION('',(#14),#411);
#13=STYLED_ITEM('',(#428),#14);
#14=MANIFOLD_SOLID_BREP('Corps1',#226);
#15=FACE_BOUND('',#58,.T.);
#16=FACE_BOUND('',#62,.T.);
#17=CYLINDRICAL_SURFACE('',#248,10.);
#18=CYLINDRICAL_SURFACE('',#250,10.);
#19=CYLINDRICAL_SURFACE('',#262,6.36);
#20=CIRCLE('',#243,9.);
#21=CIRCLE('',#244,10.);
#22=CIRCLE('',#246,10.);
#23=CIRCLE('',#247,9.);
#24=CIRCLE('',#249,10.);
#25=CIRCLE('',#251,10.);
#26=CIRCLE('',#253,9.);
#27=CIRCLE('',#254,9.);
#28=CIRCLE('',#255,7.06);
#29=CIRCLE('',#259,7.06);
#30=CIRCLE('',#261,6.36);
#31=CIRCLE('',#263,6.36);
#32=CONICAL_SURFACE('',#242,9.5,0.785398163397448);
#33=CONICAL_SURFACE('',#245,9.5,0.785398163397448);
#34=CONICAL_SURFACE('',#256,9.5,0.78539816339745);
#35=CONICAL_SURFACE('',#257,9.5,0.78539816339745);
#36=CONICAL_SURFACE('',#260,6.71,0.785398163397446);
#37=CONICAL_SURFACE('',#264,6.71,0.785398163397448);
#38=FACE_OUTER_BOUND('',#51,.T.);
#39=FACE_OUTER_BOUND('',#52,.T.);
#40=FACE_OUTER_BOUND('',#53,.T.);
#41=FACE_OUTER_BOUND('',#54,.T.);
#42=FACE_OUTER_BOUND('',#55,.T.);
#43=FACE_OUTER_BOUND('',#56,.T.);
#44=FACE_OUTER_BOUND('',#57,.T.);
#45=FACE_OUTER_BOUND('',#59,.T.);
#46=FACE_OUTER_BOUND('',#60,.T.);
#47=FACE_OUTER_BOUND('',#61,.T.);
#48=FACE_OUTER_BOUND('',#63,.T.);
#49=FACE_OUTER_BOUND('',#64,.T.);
#50=FACE_OUTER_BOUND('',#65,.T.);
#51=EDGE_LOOP('',(#147,#148,#149,#150,#151,#152,#153,#154));
#52=EDGE_LOOP('',(#155,#156,#157,#158,#159,#160,#161,#162));
#53=EDGE_LOOP('',(#163,#164,#165,#166));
#54=EDGE_LOOP('',(#167,#168,#169,#170));
#55=EDGE_LOOP('',(#171,#172,#173,#174));
#56=EDGE_LOOP('',(#175,#176,#177,#178));
#57=EDGE_LOOP('',(#179,#180,#181,#182));
#58=EDGE_LOOP('',(#183));
#59=EDGE_LOOP('',(#184,#185,#186,#187));
#60=EDGE_LOOP('',(#188,#189,#190,#191));
#61=EDGE_LOOP('',(#192,#193,#194,#195));
#62=EDGE_LOOP('',(#196));
#63=EDGE_LOOP('',(#197,#198,#199,#200));
#64=EDGE_LOOP('',(#201,#202,#203,#204));
#65=EDGE_LOOP('',(#205,#206,#207,#208));
#66=LINE('',#336,#77);
#67=LINE('',#342,#78);
#68=LINE('',#348,#79);
#69=LINE('',#353,#80);
#70=LINE('',#361,#81);
#71=LINE('',#367,#82);
#72=LINE('',#373,#83);
#73=LINE('',#378,#84);
#74=LINE('',#401,#85);
#75=LINE('',#405,#86);
#76=LINE('',#408,#87);
#77=VECTOR('',#269,10.);
#78=VECTOR('',#270,10.);
#79=VECTOR('',#271,10.);
#80=VECTOR('',#272,10.);
#81=VECTOR('',#275,10.);
#82=VECTOR('',#276,10.);
#83=VECTOR('',#277,10.);
#84=VECTOR('',#278,10.);
#85=VECTOR('',#317,6.71);
#86=VECTOR('',#322,6.36);
#87=VECTOR('',#327,6.71);
#88=(
BOUNDED_CURVE()
B_SPLINE_CURVE(2,(#332,#333,#334),.UNSPECIFIED.,.F.,.F.)
B_SPLINE_CURVE_WITH_KNOTS((3,3),(0.,0.208650528145849),.UNSPECIFIED.)
CURVE()
GEOMETRIC_REPRESENTATION_ITEM()
RATIONAL_B_SPLINE_CURVE((1.,1.00467319076461,1.))
REPRESENTATION_ITEM('')
);
#89=(
BOUNDED_CURVE()
B_SPLINE_CURVE(2,(#338,#339,#340),.UNSPECIFIED.,.F.,.F.)
B_SPLINE_CURVE_WITH_KNOTS((3,3),(0.,0.208650528145849),.UNSPECIFIED.)
CURVE()
GEOMETRIC_REPRESENTATION_ITEM()
RATIONAL_B_SPLINE_CURVE((1.,1.00467319076461,1.))
REPRESENTATION_ITEM('')
);
#90=(
BOUNDED_CURVE()
B_SPLINE_CURVE(2,(#344,#345,#346),.UNSPECIFIED.,.F.,.F.)
B_SPLINE_CURVE_WITH_KNOTS((3,3),(0.,0.208650528145851),.UNSPECIFIED.)
CURVE()
GEOMETRIC_REPRESENTATION_ITEM()
RATIONAL_B_SPLINE_CURVE((1.,1.00467319076467,1.))
REPRESENTATION_ITEM('')
);
#91=(
BOUNDED_CURVE()
B_SPLINE_CURVE(2,(#350,#351,#352),.UNSPECIFIED.,.F.,.F.)
B_SPLINE_CURVE_WITH_KNOTS((3,3),(0.,0.208650528145851),.UNSPECIFIED.)
CURVE()
GEOMETRIC_REPRESENTATION_ITEM()
RATIONAL_B_SPLINE_CURVE((1.,1.00467319076467,1.))
REPRESENTATION_ITEM('')
);
#92=(
BOUNDED_CURVE()
B_SPLINE_CURVE(2,(#357,#358,#359),.UNSPECIFIED.,.F.,.F.)
B_SPLINE_CURVE_WITH_KNOTS((3,3),(0.,0.208650528145849),.UNSPECIFIED.)
CURVE()
GEOMETRIC_REPRESENTATION_ITEM()
RATIONAL_B_SPLINE_CURVE((1.,1.00467319076461,1.))
REPRESENTATION_ITEM('')
);
#93=(
BOUNDED_CURVE()
B_SPLINE_CURVE(2,(#363,#364,#365),.UNSPECIFIED.,.F.,.F.)
B_SPLINE_CURVE_WITH_KNOTS((3,3),(0.,0.208650528145849),.UNSPECIFIED.)
CURVE()
GEOMETRIC_REPRESENTATION_ITEM()
RATIONAL_B_SPLINE_CURVE((1.,1.00467319076461,1.))
REPRESENTATION_ITEM('')
);
#94=(
BOUNDED_CURVE()
B_SPLINE_CURVE(2,(#369,#370,#371),.UNSPECIFIED.,.F.,.F.)
B_SPLINE_CURVE_WITH_KNOTS((3,3),(0.,0.208650528145851),.UNSPECIFIED.)
CURVE()
GEOMETRIC_REPRESENTATION_ITEM()
RATIONAL_B_SPLINE_CURVE((1.,1.00467319076467,1.))
REPRESENTATION_ITEM('')
);
#95=(
BOUNDED_CURVE()
B_SPLINE_CURVE(2,(#375,#376,#377),.UNSPECIFIED.,.F.,.F.)
B_SPLINE_CURVE_WITH_KNOTS((3,3),(0.,0.208650528145851),.UNSPECIFIED.)
CURVE()
GEOMETRIC_REPRESENTATION_ITEM()
RATIONAL_B_SPLINE_CURVE((1.,1.00467319076467,1.))
REPRESENTATION_ITEM('')
);
#96=VERTEX_POINT('',#330);
#97=VERTEX_POINT('',#331);
#98=VERTEX_POINT('',#335);
#99=VERTEX_POINT('',#337);
#100=VERTEX_POINT('',#341);
#101=VERTEX_POINT('',#343);
#102=VERTEX_POINT('',#347);
#103=VERTEX_POINT('',#349);
#104=VERTEX_POINT('',#355);
#105=VERTEX_POINT('',#356);
#106=VERTEX_POINT('',#360);
#107=VERTEX_POINT('',#362);
#108=VERTEX_POINT('',#366);
#109=VERTEX_POINT('',#368);
#110=VERTEX_POINT('',#372);
#111=VERTEX_POINT('',#374);
#112=VERTEX_POINT('',#392);
#113=VERTEX_POINT('',#397);
#114=VERTEX_POINT('',#400);
#115=VERTEX_POINT('',#404);
#116=EDGE_CURVE('',#96,#97,#88,.T.);
#117=EDGE_CURVE('',#98,#96,#66,.T.);
#118=EDGE_CURVE('',#99,#98,#89,.T.);
#119=EDGE_CURVE('',#100,#99,#67,.T.);
#120=EDGE_CURVE('',#101,#100,#90,.T.);
#121=EDGE_CURVE('',#102,#101,#68,.T.);
#122=EDGE_CURVE('',#103,#102,#91,.T.);
#123=EDGE_CURVE('',#97,#103,#69,.T.);
#124=EDGE_CURVE('',#104,#105,#92,.T.);
#125=EDGE_CURVE('',#106,#104,#70,.T.);
#126=EDGE_CURVE('',#107,#106,#93,.T.);
#127=EDGE_CURVE('',#108,#107,#71,.T.);
#128=EDGE_CURVE('',#109,#108,#94,.T.);
#129=EDGE_CURVE('',#110,#109,#72,.T.);
#130=EDGE_CURVE('',#111,#110,#95,.T.);
#131=EDGE_CURVE('',#105,#111,#73,.T.);
#132=EDGE_CURVE('',#98,#104,#20,.T.);
#133=EDGE_CURVE('',#105,#99,#21,.T.);
#134=EDGE_CURVE('',#97,#107,#22,.T.);
#135=EDGE_CURVE('',#106,#96,#23,.T.);
#136=EDGE_CURVE('',#100,#111,#24,.T.);
#137=EDGE_CURVE('',#108,#103,#25,.T.);
#138=EDGE_CURVE('',#110,#101,#26,.T.);
#139=EDGE_CURVE('',#102,#109,#27,.T.);
#140=EDGE_CURVE('',#112,#112,#28,.T.);
#141=EDGE_CURVE('',#113,#113,#29,.T.);
#142=EDGE_CURVE('',#112,#114,#74,.T.);
#143=EDGE_CURVE('',#114,#114,#30,.T.);
#144=EDGE_CURVE('',#114,#115,#75,.T.);
#145=EDGE_CURVE('',#115,#115,#31,.T.);
#146=EDGE_CURVE('',#115,#113,#76,.T.);
#147=ORIENTED_EDGE('',*,*,#116,.F.);
#148=ORIENTED_EDGE('',*,*,#117,.F.);
#149=ORIENTED_EDGE('',*,*,#118,.F.);
#150=ORIENTED_EDGE('',*,*,#119,.F.);
#151=ORIENTED_EDGE('',*,*,#120,.F.);
#152=ORIENTED_EDGE('',*,*,#121,.F.);
#153=ORIENTED_EDGE('',*,*,#122,.F.);
#154=ORIENTED_EDGE('',*,*,#123,.F.);
#155=ORIENTED_EDGE('',*,*,#124,.F.);
#156=ORIENTED_EDGE('',*,*,#125,.F.);
#157=ORIENTED_EDGE('',*,*,#126,.F.);
#158=ORIENTED_EDGE('',*,*,#127,.F.);
#159=ORIENTED_EDGE('',*,*,#128,.F.);
#160=ORIENTED_EDGE('',*,*,#129,.F.);
#161=ORIENTED_EDGE('',*,*,#130,.F.);
#162=ORIENTED_EDGE('',*,*,#131,.F.);
#163=ORIENTED_EDGE('',*,*,#118,.T.);
#164=ORIENTED_EDGE('',*,*,#132,.T.);
#165=ORIENTED_EDGE('',*,*,#124,.T.);
#166=ORIENTED_EDGE('',*,*,#133,.T.);
#167=ORIENTED_EDGE('',*,*,#116,.T.);
#168=ORIENTED_EDGE('',*,*,#134,.T.);
#169=ORIENTED_EDGE('',*,*,#126,.T.);
#170=ORIENTED_EDGE('',*,*,#135,.T.);
#171=ORIENTED_EDGE('',*,*,#119,.T.);
#172=ORIENTED_EDGE('',*,*,#133,.F.);
#173=ORIENTED_EDGE('',*,*,#131,.T.);
#174=ORIENTED_EDGE('',*,*,#136,.F.);
#175=ORIENTED_EDGE('',*,*,#123,.T.);
#176=ORIENTED_EDGE('',*,*,#137,.F.);
#177=ORIENTED_EDGE('',*,*,#127,.T.);
#178=ORIENTED_EDGE('',*,*,#134,.F.);
#179=ORIENTED_EDGE('',*,*,#121,.T.);
#180=ORIENTED_EDGE('',*,*,#138,.F.);
#181=ORIENTED_EDGE('',*,*,#129,.T.);
#182=ORIENTED_EDGE('',*,*,#139,.F.);
#183=ORIENTED_EDGE('',*,*,#140,.F.);
#184=ORIENTED_EDGE('',*,*,#120,.T.);
#185=ORIENTED_EDGE('',*,*,#136,.T.);
#186=ORIENTED_EDGE('',*,*,#130,.T.);
#187=ORIENTED_EDGE('',*,*,#138,.T.);
#188=ORIENTED_EDGE('',*,*,#122,.T.);
#189=ORIENTED_EDGE('',*,*,#139,.T.);
#190=ORIENTED_EDGE('',*,*,#128,.T.);
#191=ORIENTED_EDGE('',*,*,#137,.T.);
#192=ORIENTED_EDGE('',*,*,#117,.T.);
#193=ORIENTED_EDGE('',*,*,#135,.F.);
#194=ORIENTED_EDGE('',*,*,#125,.T.);
#195=ORIENTED_EDGE('',*,*,#132,.F.);
#196=ORIENTED_EDGE('',*,*,#141,.F.);
#197=ORIENTED_EDGE('',*,*,#140,.T.);
#198=ORIENTED_EDGE('',*,*,#142,.T.);
#199=ORIENTED_EDGE('',*,*,#143,.T.);
#200=ORIENTED_EDGE('',*,*,#142,.F.);
#201=ORIENTED_EDGE('',*,*,#143,.F.);
#202=ORIENTED_EDGE('',*,*,#144,.T.);
#203=ORIENTED_EDGE('',*,*,#145,.F.);
#204=ORIENTED_EDGE('',*,*,#144,.F.);
#205=ORIENTED_EDGE('',*,*,#145,.T.);
#206=ORIENTED_EDGE('',*,*,#146,.T.);
#207=ORIENTED_EDGE('',*,*,#141,.T.);
#208=ORIENTED_EDGE('',*,*,#146,.F.);
#209=PLANE('',#240);
#210=PLANE('',#241);
#211=PLANE('',#252);
#212=PLANE('',#258);
#213=ADVANCED_FACE('',(#38),#209,.F.);
#214=ADVANCED_FACE('',(#39),#210,.F.);
#215=ADVANCED_FACE('',(#40),#32,.T.);
#216=ADVANCED_FACE('',(#41),#33,.T.);
#217=ADVANCED_FACE('',(#42),#17,.T.);
#218=ADVANCED_FACE('',(#43),#18,.T.);
#219=ADVANCED_FACE('',(#44,#15),#211,.T.);
#220=ADVANCED_FACE('',(#45),#34,.T.);
#221=ADVANCED_FACE('',(#46),#35,.T.);
#222=ADVANCED_FACE('',(#47,#16),#212,.F.);
#223=ADVANCED_FACE('',(#48),#36,.F.);
#224=ADVANCED_FACE('',(#49),#19,.F.);
#225=ADVANCED_FACE('',(#50),#37,.F.);
#226=CLOSED_SHELL('',(#213,#214,#215,#216,#217,#218,#219,#220,#221,#222,
#223,#224,#225));
#227=DERIVED_UNIT_ELEMENT(#229,1.);
#228=DERIVED_UNIT_ELEMENT(#414,-3.);
#229=(
MASS_UNIT()
NAMED_UNIT(*)
SI_UNIT(.KILO.,.GRAM.)
);
#230=DERIVED_UNIT((#227,#228));
#231=MEASURE_REPRESENTATION_ITEM('density measure',
POSITIVE_RATIO_MEASURE(7850.),#230);
#232=PROPERTY_DEFINITION_REPRESENTATION(#237,#234);
#233=PROPERTY_DEFINITION_REPRESENTATION(#238,#235);
#234=REPRESENTATION('material name',(#236),#411);
#235=REPRESENTATION('density',(#231),#411);
#236=DESCRIPTIVE_REPRESENTATION_ITEM('Acier','Acier');
#237=PROPERTY_DEFINITION('material property','material name',#421);
#238=PROPERTY_DEFINITION('material property','density of part',#421);
#239=AXIS2_PLACEMENT_3D('',#328,#265,#266);
#240=AXIS2_PLACEMENT_3D('',#329,#267,#268);
#241=AXIS2_PLACEMENT_3D('',#354,#273,#274);
#242=AXIS2_PLACEMENT_3D('',#379,#279,#280);
#243=AXIS2_PLACEMENT_3D('',#380,#281,#282);
#244=AXIS2_PLACEMENT_3D('',#381,#283,#284);
#245=AXIS2_PLACEMENT_3D('',#382,#285,#286);
#246=AXIS2_PLACEMENT_3D('',#383,#287,#288);
#247=AXIS2_PLACEMENT_3D('',#384,#289,#290);
#248=AXIS2_PLACEMENT_3D('',#385,#291,#292);
#249=AXIS2_PLACEMENT_3D('',#386,#293,#294);
#250=AXIS2_PLACEMENT_3D('',#387,#295,#296);
#251=AXIS2_PLACEMENT_3D('',#388,#297,#298);
#252=AXIS2_PLACEMENT_3D('',#389,#299,#300);
#253=AXIS2_PLACEMENT_3D('',#390,#301,#302);
#254=AXIS2_PLACEMENT_3D('',#391,#303,#304);
#255=AXIS2_PLACEMENT_3D('',#393,#305,#306);
#256=AXIS2_PLACEMENT_3D('',#394,#307,#308);
#257=AXIS2_PLACEMENT_3D('',#395,#309,#310);
#258=AXIS2_PLACEMENT_3D('',#396,#311,#312);
#259=AXIS2_PLACEMENT_3D('',#398,#313,#314);
#260=AXIS2_PLACEMENT_3D('',#399,#315,#316);
#261=AXIS2_PLACEMENT_3D('',#402,#318,#319);
#262=AXIS2_PLACEMENT_3D('',#403,#320,#321);
#263=AXIS2_PLACEMENT_3D('',#406,#323,#324);
#264=AXIS2_PLACEMENT_3D('',#407,#325,#326);
#265=DIRECTION('axis',(0.,0.,1.));
#266=DIRECTION('refdir',(1.,0.,0.));
#267=DIRECTION('center_axis',(1.,0.,0.));
#268=DIRECTION('ref_axis',(0.,0.,-1.));
#269=DIRECTION('',(0.,0.,-1.));
#270=DIRECTION('',(0.,-1.,0.));
#271=DIRECTION('',(0.,0.,1.));
#272=DIRECTION('',(0.,1.,0.));
#273=DIRECTION('center_axis',(-1.,0.,0.));
#274=DIRECTION('ref_axis',(0.,0.,1.));
#275=DIRECTION('',(0.,0.,1.));
#276=DIRECTION('',(0.,-1.,0.));
#277=DIRECTION('',(0.,0.,-1.));
#278=DIRECTION('',(0.,1.,0.));
#279=DIRECTION('center_axis',(0.,1.,0.));
#280=DIRECTION('ref_axis',(1.,0.,0.));
#281=DIRECTION('center_axis',(0.,1.,0.));
#282=DIRECTION('ref_axis',(1.,0.,0.));
#283=DIRECTION('center_axis',(0.,-1.,0.));
#284=DIRECTION('ref_axis',(1.,0.,0.));
#285=DIRECTION('center_axis',(0.,1.,0.));
#286=DIRECTION('ref_axis',(1.,0.,0.));
#287=DIRECTION('center_axis',(0.,-1.,0.));
#288=DIRECTION('ref_axis',(1.,0.,0.));
#289=DIRECTION('center_axis',(0.,1.,0.));
#290=DIRECTION('ref_axis',(1.,0.,0.));
#291=DIRECTION('center_axis',(0.,1.,0.));
#292=DIRECTION('ref_axis',(1.,0.,0.));
#293=DIRECTION('center_axis',(0.,1.,0.));
#294=DIRECTION('ref_axis',(1.,0.,0.));
#295=DIRECTION('center_axis',(0.,1.,0.));
#296=DIRECTION('ref_axis',(1.,0.,0.));
#297=DIRECTION('center_axis',(0.,1.,0.));
#298=DIRECTION('ref_axis',(1.,0.,0.));
#299=DIRECTION('center_axis',(0.,1.,0.));
#300=DIRECTION('ref_axis',(1.,0.,0.));
#301=DIRECTION('center_axis',(0.,-1.,0.));
#302=DIRECTION('ref_axis',(1.,0.,0.));
#303=DIRECTION('center_axis',(0.,-1.,0.));
#304=DIRECTION('ref_axis',(1.,0.,0.));
#305=DIRECTION('center_axis',(0.,1.,0.));
#306=DIRECTION('ref_axis',(1.,0.,0.));
#307=DIRECTION('center_axis',(0.,-1.,0.));
#308=DIRECTION('ref_axis',(1.,0.,0.));
#309=DIRECTION('center_axis',(0.,-1.,0.));
#310=DIRECTION('ref_axis',(1.,0.,0.));
#311=DIRECTION('center_axis',(0.,1.,0.));
#312=DIRECTION('ref_axis',(1.,0.,0.));
#313=DIRECTION('center_axis',(0.,-1.,0.));
#314=DIRECTION('ref_axis',(1.,0.,0.));
#315=DIRECTION('center_axis',(0.,1.,0.));
#316=DIRECTION('ref_axis',(1.,0.,0.));
#317=DIRECTION('',(0.707106781186546,-0.707106781186549,-8.65956056235491E-17));
#318=DIRECTION('center_axis',(0.,-1.,0.));
#319=DIRECTION('ref_axis',(1.,0.,0.));
#320=DIRECTION('center_axis',(0.,1.,0.));
#321=DIRECTION('ref_axis',(1.,0.,0.));
#322=DIRECTION('',(0.,-1.,0.));
#323=DIRECTION('center_axis',(0.,1.,0.));
#324=DIRECTION('ref_axis',(1.,0.,0.));
#325=DIRECTION('center_axis',(0.,-1.,0.));
#326=DIRECTION('ref_axis',(1.,0.,0.));
#327=DIRECTION('',(-0.707106781186547,-0.707106781186548,8.65956056235493E-17));
#328=CARTESIAN_POINT('',(0.,0.,0.));
#329=CARTESIAN_POINT('Origin',(-7.92,0.,10.7078759416556));
#330=CARTESIAN_POINT('',(-7.92,3.46944695195361E-16,-4.27476315133365));
#331=CARTESIAN_POINT('',(-7.92,1.,-6.10521088906845));
#332=CARTESIAN_POINT('Ctrl Pts',(-7.92,3.46944695195361E-16,-4.27476315133365));
#333=CARTESIAN_POINT('Ctrl Pts',(-7.92,0.411827923142669,-5.14181734289224));
#334=CARTESIAN_POINT('Ctrl Pts',(-7.92,1.,-6.10521088906845));
#335=CARTESIAN_POINT('',(-7.92,3.46944695195361E-16,4.27476315133365));
#336=CARTESIAN_POINT('',(-7.92,0.,5.3539379708278));
#337=CARTESIAN_POINT('',(-7.92,1.,6.10521088906845));
#338=CARTESIAN_POINT('Ctrl Pts',(-7.92,1.,6.10521088906845));
#339=CARTESIAN_POINT('Ctrl Pts',(-7.92,0.411827923142669,5.14181734289224));
#340=CARTESIAN_POINT('Ctrl Pts',(-7.92,3.46944695195361E-16,4.27476315133365));
#341=CARTESIAN_POINT('',(-7.92,49.8,6.10521088906845));
#342=CARTESIAN_POINT('',(-7.92,0.,6.10521088906845));
#343=CARTESIAN_POINT('',(-7.92,50.8,4.27476315133365));
#344=CARTESIAN_POINT('Ctrl Pts',(-7.92,50.8,4.27476315133363));
#345=CARTESIAN_POINT('Ctrl Pts',(-7.92,50.3881720768573,5.14181734289236));
#346=CARTESIAN_POINT('Ctrl Pts',(-7.92,49.8,6.10521088906847));
#347=CARTESIAN_POINT('',(-7.92,50.8,-4.27476315133365));
#348=CARTESIAN_POINT('',(-7.92,50.8,5.3539379708278));
#349=CARTESIAN_POINT('',(-7.92,49.8,-6.10521088906845));
#350=CARTESIAN_POINT('Ctrl Pts',(-7.92,49.8,-6.10521088906847));
#351=CARTESIAN_POINT('Ctrl Pts',(-7.92,50.3881720768573,-5.14181734289236));
#352=CARTESIAN_POINT('Ctrl Pts',(-7.92,50.8,-4.27476315133363));
#353=CARTESIAN_POINT('',(-7.92,0.,-6.10521088906845));
#354=CARTESIAN_POINT('Origin',(7.92,0.,-10.3725001245932));
#355=CARTESIAN_POINT('',(7.92,3.46944695195361E-16,4.27476315133365));
#356=CARTESIAN_POINT('',(7.92,1.,6.10521088906845));
#357=CARTESIAN_POINT('Ctrl Pts',(7.92,3.46944695195361E-16,4.27476315133365));
#358=CARTESIAN_POINT('Ctrl Pts',(7.92,0.411827923142669,5.14181734289224));
#359=CARTESIAN_POINT('Ctrl Pts',(7.92,1.,6.10521088906845));
#360=CARTESIAN_POINT('',(7.92,3.46944695195361E-16,-4.27476315133365));
#361=CARTESIAN_POINT('',(7.92,0.,-5.18625006229662));
#362=CARTESIAN_POINT('',(7.92,1.,-6.10521088906845));
#363=CARTESIAN_POINT('Ctrl Pts',(7.92,1.,-6.10521088906845));
#364=CARTESIAN_POINT('Ctrl Pts',(7.92,0.411827923142669,-5.14181734289224));
#365=CARTESIAN_POINT('Ctrl Pts',(7.92,3.46944695195361E-16,-4.27476315133365));
#366=CARTESIAN_POINT('',(7.92,49.8,-6.10521088906845));
#367=CARTESIAN_POINT('',(7.92,0.,-6.10521088906845));
#368=CARTESIAN_POINT('',(7.92,50.8,-4.27476315133365));
#369=CARTESIAN_POINT('Ctrl Pts',(7.92,50.8,-4.27476315133363));
#370=CARTESIAN_POINT('Ctrl Pts',(7.92,50.3881720768573,-5.14181734289236));
#371=CARTESIAN_POINT('Ctrl Pts',(7.92,49.8,-6.10521088906847));
#372=CARTESIAN_POINT('',(7.92,50.8,4.27476315133365));
#373=CARTESIAN_POINT('',(7.92,50.8,-5.18625006229662));
#374=CARTESIAN_POINT('',(7.92,49.8,6.10521088906845));
#375=CARTESIAN_POINT('Ctrl Pts',(7.92,49.8,6.10521088906847));
#376=CARTESIAN_POINT('Ctrl Pts',(7.92,50.3881720768573,5.14181734289236));
#377=CARTESIAN_POINT('Ctrl Pts',(7.92,50.8,4.27476315133363));
#378=CARTESIAN_POINT('',(7.92,0.,6.10521088906845));
#379=CARTESIAN_POINT('Origin',(0.,0.5,0.));
#380=CARTESIAN_POINT('Origin',(0.,0.,0.));
#381=CARTESIAN_POINT('Origin',(0.,1.,0.));
#382=CARTESIAN_POINT('Origin',(0.,0.5,0.));
#383=CARTESIAN_POINT('Origin',(0.,1.,0.));
#384=CARTESIAN_POINT('Origin',(0.,0.,0.));
#385=CARTESIAN_POINT('Origin',(0.,0.,0.));
#386=CARTESIAN_POINT('Origin',(0.,49.8,0.));
#387=CARTESIAN_POINT('Origin',(0.,0.,0.));
#388=CARTESIAN_POINT('Origin',(0.,49.8,0.));
#389=CARTESIAN_POINT('Origin',(0.,50.8,0.));
#390=CARTESIAN_POINT('Origin',(0.,50.8,0.));
#391=CARTESIAN_POINT('Origin',(0.,50.8,0.));
#392=CARTESIAN_POINT('',(-7.06,50.8,8.64600640198031E-16));
#393=CARTESIAN_POINT('Origin',(0.,50.8,0.));
#394=CARTESIAN_POINT('Origin',(0.,50.3,0.));
#395=CARTESIAN_POINT('Origin',(0.,50.3,0.));
#396=CARTESIAN_POINT('Origin',(0.,0.,0.));
#397=CARTESIAN_POINT('',(-7.06,0.,-8.64600640198031E-16));
#398=CARTESIAN_POINT('Origin',(0.,0.,0.));
#399=CARTESIAN_POINT('Origin',(0.,50.45,0.));
#400=CARTESIAN_POINT('',(-6.36,50.1,-7.78875364257717E-16));
#401=CARTESIAN_POINT('',(-6.71,50.45,8.21738002227874E-16));
#402=CARTESIAN_POINT('Origin',(0.,50.1,0.));
#403=CARTESIAN_POINT('Origin',(0.,0.,0.));
#404=CARTESIAN_POINT('',(-6.36,0.7,7.78875364257717E-16));
#405=CARTESIAN_POINT('',(-6.36,0.,7.78875364257717E-16));
#406=CARTESIAN_POINT('Origin',(0.,0.7,0.));
#407=CARTESIAN_POINT('Origin',(0.,0.35,0.));
#408=CARTESIAN_POINT('',(-6.71,0.35,8.21738002227874E-16));
#409=UNCERTAINTY_MEASURE_WITH_UNIT(LENGTH_MEASURE(0.01),#413,
'DISTANCE_ACCURACY_VALUE',
'Maximum model space distance between geometric entities at asserted c
onnectivities');
#410=UNCERTAINTY_MEASURE_WITH_UNIT(LENGTH_MEASURE(0.01),#413,
'DISTANCE_ACCURACY_VALUE',
'Maximum model space distance between geometric entities at asserted c
onnectivities');
#411=(
GEOMETRIC_REPRESENTATION_CONTEXT(3)
GLOBAL_UNCERTAINTY_ASSIGNED_CONTEXT((#409))
GLOBAL_UNIT_ASSIGNED_CONTEXT((#413,#415,#416))
REPRESENTATION_CONTEXT('','3D')
);
#412=(
GEOMETRIC_REPRESENTATION_CONTEXT(3)
GLOBAL_UNCERTAINTY_ASSIGNED_CONTEXT((#410))
GLOBAL_UNIT_ASSIGNED_CONTEXT((#413,#415,#416))
REPRESENTATION_CONTEXT('','3D')
);
#413=(
LENGTH_UNIT()
NAMED_UNIT(*)
SI_UNIT(.MILLI.,.METRE.)
);
#414=(
LENGTH_UNIT()
NAMED_UNIT(*)
SI_UNIT($,.METRE.)
);
#415=(
NAMED_UNIT(*)
PLANE_ANGLE_UNIT()
SI_UNIT($,.RADIAN.)
);
#416=(
NAMED_UNIT(*)
SI_UNIT($,.STERADIAN.)
SOLID_ANGLE_UNIT()
);
#417=SHAPE_DEFINITION_REPRESENTATION(#418,#419);
#418=PRODUCT_DEFINITION_SHAPE('',$,#421);
#419=SHAPE_REPRESENTATION('',(#239),#411);
#420=PRODUCT_DEFINITION_CONTEXT('part definition',#425,'design');
#421=PRODUCT_DEFINITION('Insert M20x1.5','Insert M20x1.5 v2',#422,#420);
#422=PRODUCT_DEFINITION_FORMATION('',$,#427);
#423=PRODUCT_RELATED_PRODUCT_CATEGORY('Insert M20x1.5 v2',
'Insert M20x1.5 v2',(#427));
#424=APPLICATION_PROTOCOL_DEFINITION('international standard',
'automotive_design',2009,#425);
#425=APPLICATION_CONTEXT(
'Core Data for Automotive Mechanical Design Process');
#426=PRODUCT_CONTEXT('part definition',#425,'mechanical');
#427=PRODUCT('Insert M20x1.5','Insert M20x1.5 v2',$,(#426));
#428=PRESENTATION_STYLE_ASSIGNMENT((#429));
#429=SURFACE_STYLE_USAGE(.BOTH.,#430);
#430=SURFACE_SIDE_STYLE('',(#431));
#431=SURFACE_STYLE_FILL_AREA(#432);
#432=FILL_AREA_STYLE('Acier - Satin\X\E9',(#433));
#433=FILL_AREA_STYLE_COLOUR('Acier - Satin\X\E9',#434);
#434=COLOUR_RGB('Acier - Satin\X\E9',0.627450980392157,0.627450980392157,
0.627450980392157);
ENDSEC;
END-ISO-10303-21;
