ISO-10303-21;
HEADER;
/* Generated by software containing ST-Developer
 * from STEP Tools, Inc. (www.steptools.com) 
 */

FILE_DESCRIPTION(
/* description */ (''),
/* implementation_level */ '2;1');

FILE_NAME(
/* name */ 'Flasque cone v4.step',
/* time_stamp */ '2024-10-07T19:59:13+02:00',
/* author */ (''),
/* organization */ (''),
/* preprocessor_version */ 'ST-DEVELOPER v20',
/* originating_system */ 'Autodesk Translation Framework v13.20.0.188',

/* authorisation */ '');

FILE_SCHEMA (('AUTOMOTIVE_DESIGN { 1 0 10303 214 3 1 1 }'));
ENDSEC;

DATA;
#10=MECHANICAL_DESIGN_GEOMETRIC_PRESENTATION_REPRESENTATION('',(#13),#616);
#11=SHAPE_REPRESENTATION_RELATIONSHIP('SRR','None',#623,#12);
#12=ADVANCED_BREP_SHAPE_REPRESENTATION('',(#14),#615);
#13=STYLED_ITEM('',(#632),#14);
#14=MANIFOLD_SOLID_BREP('Corps1',#319);
#15=(
BOUNDED_SURFACE()
B_SPLINE_SURFACE(2,2,((#570,#571,#572,#573,#574,#575,#576,#577,#578),(#579,
#580,#581,#582,#583,#584,#585,#586,#587),(#588,#589,#590,#591,#592,#593,
#594,#595,#596)),.UNSPECIFIED.,.F.,.T.,.F.)
B_SPLINE_SURFACE_WITH_KNOTS((3,3),(3,2,2,2,3),(-1.64393987296677,-1.5707963267949),
(-3.14159265358979,-1.5707963267949,0.,1.5707963267949,3.14159265358979),
 .UNSPECIFIED.)
GEOMETRIC_REPRESENTATION_ITEM()
RATIONAL_B_SPLINE_SURFACE(((1.,0.707106781186548,1.,0.707106781186548,1.,
0.707106781186548,1.,0.707106781186548,1.),(0.999331327240728,0.706633958144071,
0.999331327240728,0.706633958144071,0.999331327240728,0.706633958144071,
0.999331327240728,0.706633958144071,0.999331327240728),(1.,0.707106781186548,
1.,0.707106781186548,1.,0.707106781186548,1.,0.707106781186548,1.)))
REPRESENTATION_ITEM('')
SURFACE()
);
#16=LINE('',#522,#24);
#17=LINE('',#530,#25);
#18=LINE('',#538,#26);
#19=LINE('',#546,#27);
#20=LINE('',#554,#28);
#21=LINE('',#568,#29);
#22=LINE('',#604,#30);
#23=LINE('',#612,#31);
#24=VECTOR('',#413,4.9);
#25=VECTOR('',#424,2.6);
#26=VECTOR('',#435,2.6);
#27=VECTOR('',#446,2.6);
#28=VECTOR('',#457,2.6);
#29=VECTOR('',#474,53.5);
#30=VECTOR('',#485,56.);
#31=VECTOR('',#498,57.);
#32=CYLINDRICAL_SURFACE('',#344,4.9);
#33=CYLINDRICAL_SURFACE('',#349,2.6);
#34=CYLINDRICAL_SURFACE('',#354,2.6);
#35=CYLINDRICAL_SURFACE('',#359,2.6);
#36=CYLINDRICAL_SURFACE('',#364,2.6);
#37=CYLINDRICAL_SURFACE('',#373,53.5);
#38=CYLINDRICAL_SURFACE('',#377,56.);
#39=CYLINDRICAL_SURFACE('',#384,57.);
#40=FACE_BOUND('',#80,.T.);
#41=FACE_BOUND('',#81,.T.);
#42=FACE_BOUND('',#82,.T.);
#43=FACE_BOUND('',#83,.T.);
#44=FACE_BOUND('',#84,.T.);
#45=FACE_BOUND('',#96,.T.);
#46=FACE_BOUND('',#101,.T.);
#47=FACE_BOUND('',#103,.T.);
#48=FACE_BOUND('',#105,.T.);
#49=FACE_BOUND('',#106,.T.);
#50=FACE_BOUND('',#107,.T.);
#51=FACE_BOUND('',#108,.T.);
#52=FACE_BOUND('',#109,.T.);
#53=PLANE('',#338);
#54=PLANE('',#371);
#55=PLANE('',#380);
#56=PLANE('',#381);
#57=PLANE('',#383);
#58=FACE_OUTER_BOUND('',#78,.T.);
#59=FACE_OUTER_BOUND('',#79,.T.);
#60=FACE_OUTER_BOUND('',#85,.T.);
#61=FACE_OUTER_BOUND('',#86,.T.);
#62=FACE_OUTER_BOUND('',#87,.T.);
#63=FACE_OUTER_BOUND('',#88,.T.);
#64=FACE_OUTER_BOUND('',#89,.T.);
#65=FACE_OUTER_BOUND('',#90,.T.);
#66=FACE_OUTER_BOUND('',#91,.T.);
#67=FACE_OUTER_BOUND('',#92,.T.);
#68=FACE_OUTER_BOUND('',#93,.T.);
#69=FACE_OUTER_BOUND('',#94,.T.);
#70=FACE_OUTER_BOUND('',#95,.T.);
#71=FACE_OUTER_BOUND('',#97,.T.);
#72=FACE_OUTER_BOUND('',#98,.T.);
#73=FACE_OUTER_BOUND('',#99,.T.);
#74=FACE_OUTER_BOUND('',#100,.T.);
#75=FACE_OUTER_BOUND('',#102,.T.);
#76=FACE_OUTER_BOUND('',#104,.T.);
#77=FACE_OUTER_BOUND('',#110,.T.);
#78=EDGE_LOOP('',(#211,#212,#213,#214,#215));
#79=EDGE_LOOP('',(#216));
#80=EDGE_LOOP('',(#217));
#81=EDGE_LOOP('',(#218));
#82=EDGE_LOOP('',(#219));
#83=EDGE_LOOP('',(#220));
#84=EDGE_LOOP('',(#221));
#85=EDGE_LOOP('',(#222,#223,#224,#225,#226));
#86=EDGE_LOOP('',(#227,#228,#229,#230));
#87=EDGE_LOOP('',(#231,#232,#233,#234));
#88=EDGE_LOOP('',(#235,#236,#237,#238));
#89=EDGE_LOOP('',(#239,#240,#241,#242));
#90=EDGE_LOOP('',(#243,#244,#245,#246));
#91=EDGE_LOOP('',(#247,#248,#249,#250));
#92=EDGE_LOOP('',(#251,#252,#253,#254));
#93=EDGE_LOOP('',(#255,#256,#257,#258));
#94=EDGE_LOOP('',(#259,#260,#261,#262,#263));
#95=EDGE_LOOP('',(#264));
#96=EDGE_LOOP('',(#265));
#97=EDGE_LOOP('',(#266,#267,#268,#269,#270));
#98=EDGE_LOOP('',(#271,#272,#273,#274));
#99=EDGE_LOOP('',(#275,#276,#277,#278));
#100=EDGE_LOOP('',(#279));
#101=EDGE_LOOP('',(#280));
#102=EDGE_LOOP('',(#281));
#103=EDGE_LOOP('',(#282));
#104=EDGE_LOOP('',(#283));
#105=EDGE_LOOP('',(#284));
#106=EDGE_LOOP('',(#285));
#107=EDGE_LOOP('',(#286));
#108=EDGE_LOOP('',(#287));
#109=EDGE_LOOP('',(#288));
#110=EDGE_LOOP('',(#289,#290,#291,#292));
#111=CIRCLE('',#334,5.1);
#112=CIRCLE('',#335,0.2);
#113=CIRCLE('',#336,4.9);
#114=CIRCLE('',#337,4.9);
#115=CIRCLE('',#339,57.);
#116=CIRCLE('',#340,2.8);
#117=CIRCLE('',#341,2.8);
#118=CIRCLE('',#342,2.8);
#119=CIRCLE('',#343,2.8);
#120=CIRCLE('',#345,4.9);
#121=CIRCLE('',#347,0.2);
#122=CIRCLE('',#348,2.6);
#123=CIRCLE('',#350,2.6);
#124=CIRCLE('',#352,0.2);
#125=CIRCLE('',#353,2.6);
#126=CIRCLE('',#355,2.6);
#127=CIRCLE('',#357,0.2);
#128=CIRCLE('',#358,2.6);
#129=CIRCLE('',#360,2.6);
#130=CIRCLE('',#362,0.2);
#131=CIRCLE('',#363,2.6);
#132=CIRCLE('',#365,2.6);
#133=CIRCLE('',#367,53.1);
#134=CIRCLE('',#368,0.4);
#135=CIRCLE('',#369,53.5);
#136=CIRCLE('',#370,53.5);
#137=CIRCLE('',#372,50.8313007374329);
#138=CIRCLE('',#374,53.5);
#139=CIRCLE('',#375,374.);
#140=CIRCLE('',#376,23.5);
#141=CIRCLE('',#378,56.);
#142=CIRCLE('',#379,56.);
#143=CIRCLE('',#382,57.);
#144=VERTEX_POINT('',#501);
#145=VERTEX_POINT('',#503);
#146=VERTEX_POINT('',#505);
#147=VERTEX_POINT('',#509);
#148=VERTEX_POINT('',#511);
#149=VERTEX_POINT('',#513);
#150=VERTEX_POINT('',#515);
#151=VERTEX_POINT('',#517);
#152=VERTEX_POINT('',#520);
#153=VERTEX_POINT('',#524);
#154=VERTEX_POINT('',#528);
#155=VERTEX_POINT('',#532);
#156=VERTEX_POINT('',#536);
#157=VERTEX_POINT('',#540);
#158=VERTEX_POINT('',#544);
#159=VERTEX_POINT('',#548);
#160=VERTEX_POINT('',#552);
#161=VERTEX_POINT('',#556);
#162=VERTEX_POINT('',#558);
#163=VERTEX_POINT('',#560);
#164=VERTEX_POINT('',#564);
#165=VERTEX_POINT('',#567);
#166=VERTEX_POINT('',#597);
#167=VERTEX_POINT('',#601);
#168=VERTEX_POINT('',#603);
#169=VERTEX_POINT('',#608);
#170=EDGE_CURVE('',#144,#144,#111,.T.);
#171=EDGE_CURVE('',#144,#145,#112,.T.);
#172=EDGE_CURVE('',#145,#146,#113,.T.);
#173=EDGE_CURVE('',#146,#145,#114,.T.);
#174=EDGE_CURVE('',#147,#147,#115,.T.);
#175=EDGE_CURVE('',#148,#148,#116,.T.);
#176=EDGE_CURVE('',#149,#149,#117,.T.);
#177=EDGE_CURVE('',#150,#150,#118,.T.);
#178=EDGE_CURVE('',#151,#151,#119,.T.);
#179=EDGE_CURVE('',#152,#152,#120,.T.);
#180=EDGE_CURVE('',#152,#146,#16,.T.);
#181=EDGE_CURVE('',#148,#153,#121,.T.);
#182=EDGE_CURVE('',#153,#153,#122,.T.);
#183=EDGE_CURVE('',#154,#154,#123,.T.);
#184=EDGE_CURVE('',#154,#153,#17,.T.);
#185=EDGE_CURVE('',#151,#155,#124,.T.);
#186=EDGE_CURVE('',#155,#155,#125,.T.);
#187=EDGE_CURVE('',#156,#156,#126,.T.);
#188=EDGE_CURVE('',#156,#155,#18,.T.);
#189=EDGE_CURVE('',#149,#157,#127,.T.);
#190=EDGE_CURVE('',#157,#157,#128,.T.);
#191=EDGE_CURVE('',#158,#158,#129,.T.);
#192=EDGE_CURVE('',#158,#157,#19,.T.);
#193=EDGE_CURVE('',#150,#159,#130,.T.);
#194=EDGE_CURVE('',#159,#159,#131,.T.);
#195=EDGE_CURVE('',#160,#160,#132,.T.);
#196=EDGE_CURVE('',#160,#159,#20,.T.);
#197=EDGE_CURVE('',#161,#161,#133,.T.);
#198=EDGE_CURVE('',#161,#162,#134,.T.);
#199=EDGE_CURVE('',#162,#163,#135,.T.);
#200=EDGE_CURVE('',#163,#162,#136,.T.);
#201=EDGE_CURVE('',#164,#164,#137,.T.);
#202=EDGE_CURVE('',#163,#165,#21,.T.);
#203=EDGE_CURVE('',#165,#165,#138,.T.);
#204=EDGE_CURVE('',#164,#166,#139,.T.);
#205=EDGE_CURVE('',#166,#166,#140,.T.);
#206=EDGE_CURVE('',#167,#167,#141,.T.);
#207=EDGE_CURVE('',#167,#168,#22,.T.);
#208=EDGE_CURVE('',#168,#168,#142,.T.);
#209=EDGE_CURVE('',#169,#169,#143,.T.);
#210=EDGE_CURVE('',#169,#147,#23,.T.);
#211=ORIENTED_EDGE('',*,*,#170,.T.);
#212=ORIENTED_EDGE('',*,*,#171,.T.);
#213=ORIENTED_EDGE('',*,*,#172,.T.);
#214=ORIENTED_EDGE('',*,*,#173,.T.);
#215=ORIENTED_EDGE('',*,*,#171,.F.);
#216=ORIENTED_EDGE('',*,*,#174,.F.);
#217=ORIENTED_EDGE('',*,*,#175,.F.);
#218=ORIENTED_EDGE('',*,*,#176,.F.);
#219=ORIENTED_EDGE('',*,*,#177,.F.);
#220=ORIENTED_EDGE('',*,*,#178,.F.);
#221=ORIENTED_EDGE('',*,*,#170,.F.);
#222=ORIENTED_EDGE('',*,*,#179,.F.);
#223=ORIENTED_EDGE('',*,*,#180,.T.);
#224=ORIENTED_EDGE('',*,*,#172,.F.);
#225=ORIENTED_EDGE('',*,*,#173,.F.);
#226=ORIENTED_EDGE('',*,*,#180,.F.);
#227=ORIENTED_EDGE('',*,*,#175,.T.);
#228=ORIENTED_EDGE('',*,*,#181,.T.);
#229=ORIENTED_EDGE('',*,*,#182,.T.);
#230=ORIENTED_EDGE('',*,*,#181,.F.);
#231=ORIENTED_EDGE('',*,*,#183,.F.);
#232=ORIENTED_EDGE('',*,*,#184,.T.);
#233=ORIENTED_EDGE('',*,*,#182,.F.);
#234=ORIENTED_EDGE('',*,*,#184,.F.);
#235=ORIENTED_EDGE('',*,*,#178,.T.);
#236=ORIENTED_EDGE('',*,*,#185,.T.);
#237=ORIENTED_EDGE('',*,*,#186,.T.);
#238=ORIENTED_EDGE('',*,*,#185,.F.);
#239=ORIENTED_EDGE('',*,*,#187,.F.);
#240=ORIENTED_EDGE('',*,*,#188,.T.);
#241=ORIENTED_EDGE('',*,*,#186,.F.);
#242=ORIENTED_EDGE('',*,*,#188,.F.);
#243=ORIENTED_EDGE('',*,*,#176,.T.);
#244=ORIENTED_EDGE('',*,*,#189,.T.);
#245=ORIENTED_EDGE('',*,*,#190,.T.);
#246=ORIENTED_EDGE('',*,*,#189,.F.);
#247=ORIENTED_EDGE('',*,*,#191,.F.);
#248=ORIENTED_EDGE('',*,*,#192,.T.);
#249=ORIENTED_EDGE('',*,*,#190,.F.);
#250=ORIENTED_EDGE('',*,*,#192,.F.);
#251=ORIENTED_EDGE('',*,*,#177,.T.);
#252=ORIENTED_EDGE('',*,*,#193,.T.);
#253=ORIENTED_EDGE('',*,*,#194,.T.);
#254=ORIENTED_EDGE('',*,*,#193,.F.);
#255=ORIENTED_EDGE('',*,*,#195,.F.);
#256=ORIENTED_EDGE('',*,*,#196,.T.);
#257=ORIENTED_EDGE('',*,*,#194,.F.);
#258=ORIENTED_EDGE('',*,*,#196,.F.);
#259=ORIENTED_EDGE('',*,*,#197,.T.);
#260=ORIENTED_EDGE('',*,*,#198,.T.);
#261=ORIENTED_EDGE('',*,*,#199,.T.);
#262=ORIENTED_EDGE('',*,*,#200,.T.);
#263=ORIENTED_EDGE('',*,*,#198,.F.);
#264=ORIENTED_EDGE('',*,*,#197,.F.);
#265=ORIENTED_EDGE('',*,*,#201,.F.);
#266=ORIENTED_EDGE('',*,*,#200,.F.);
#267=ORIENTED_EDGE('',*,*,#202,.T.);
#268=ORIENTED_EDGE('',*,*,#203,.T.);
#269=ORIENTED_EDGE('',*,*,#202,.F.);
#270=ORIENTED_EDGE('',*,*,#199,.F.);
#271=ORIENTED_EDGE('',*,*,#201,.T.);
#272=ORIENTED_EDGE('',*,*,#204,.T.);
#273=ORIENTED_EDGE('',*,*,#205,.F.);
#274=ORIENTED_EDGE('',*,*,#204,.F.);
#275=ORIENTED_EDGE('',*,*,#206,.F.);
#276=ORIENTED_EDGE('',*,*,#207,.T.);
#277=ORIENTED_EDGE('',*,*,#208,.T.);
#278=ORIENTED_EDGE('',*,*,#207,.F.);
#279=ORIENTED_EDGE('',*,*,#208,.F.);
#280=ORIENTED_EDGE('',*,*,#203,.F.);
#281=ORIENTED_EDGE('',*,*,#209,.T.);
#282=ORIENTED_EDGE('',*,*,#206,.T.);
#283=ORIENTED_EDGE('',*,*,#205,.T.);
#284=ORIENTED_EDGE('',*,*,#187,.T.);
#285=ORIENTED_EDGE('',*,*,#195,.T.);
#286=ORIENTED_EDGE('',*,*,#183,.T.);
#287=ORIENTED_EDGE('',*,*,#191,.T.);
#288=ORIENTED_EDGE('',*,*,#179,.T.);
#289=ORIENTED_EDGE('',*,*,#209,.F.);
#290=ORIENTED_EDGE('',*,*,#210,.T.);
#291=ORIENTED_EDGE('',*,*,#174,.T.);
#292=ORIENTED_EDGE('',*,*,#210,.F.);
#293=TOROIDAL_SURFACE('',#333,5.1,0.2);
#294=TOROIDAL_SURFACE('',#346,2.8,0.2);
#295=TOROIDAL_SURFACE('',#351,2.8,0.2);
#296=TOROIDAL_SURFACE('',#356,2.8,0.2);
#297=TOROIDAL_SURFACE('',#361,2.8,0.2);
#298=TOROIDAL_SURFACE('',#366,53.1,0.4);
#299=ADVANCED_FACE('',(#58),#293,.T.);
#300=ADVANCED_FACE('',(#59,#40,#41,#42,#43,#44),#53,.F.);
#301=ADVANCED_FACE('',(#60),#32,.F.);
#302=ADVANCED_FACE('',(#61),#294,.T.);
#303=ADVANCED_FACE('',(#62),#33,.F.);
#304=ADVANCED_FACE('',(#63),#295,.T.);
#305=ADVANCED_FACE('',(#64),#34,.F.);
#306=ADVANCED_FACE('',(#65),#296,.T.);
#307=ADVANCED_FACE('',(#66),#35,.F.);
#308=ADVANCED_FACE('',(#67),#297,.T.);
#309=ADVANCED_FACE('',(#68),#36,.F.);
#310=ADVANCED_FACE('',(#69),#298,.T.);
#311=ADVANCED_FACE('',(#70,#45),#54,.T.);
#312=ADVANCED_FACE('',(#71),#37,.T.);
#313=ADVANCED_FACE('',(#72),#15,.T.);
#314=ADVANCED_FACE('',(#73),#38,.F.);
#315=ADVANCED_FACE('',(#74,#46),#55,.T.);
#316=ADVANCED_FACE('',(#75,#47),#56,.T.);
#317=ADVANCED_FACE('',(#76,#48,#49,#50,#51,#52),#57,.T.);
#318=ADVANCED_FACE('',(#77),#39,.T.);
#319=CLOSED_SHELL('',(#299,#300,#301,#302,#303,#304,#305,#306,#307,#308,
#309,#310,#311,#312,#313,#314,#315,#316,#317,#318));
#320=DERIVED_UNIT_ELEMENT(#322,1.);
#321=DERIVED_UNIT_ELEMENT(#618,-3.);
#322=(
MASS_UNIT()
NAMED_UNIT(*)
SI_UNIT(.KILO.,.GRAM.)
);
#323=DERIVED_UNIT((#320,#321));
#324=MEASURE_REPRESENTATION_ITEM('density measure',
POSITIVE_RATIO_MEASURE(7850.),#323);
#325=PROPERTY_DEFINITION_REPRESENTATION(#330,#327);
#326=PROPERTY_DEFINITION_REPRESENTATION(#331,#328);
#327=REPRESENTATION('material name',(#329),#615);
#328=REPRESENTATION('density',(#324),#615);
#329=DESCRIPTIVE_REPRESENTATION_ITEM('Acier','Acier');
#330=PROPERTY_DEFINITION('material property','material name',#625);
#331=PROPERTY_DEFINITION('material property','density of part',#625);
#332=AXIS2_PLACEMENT_3D('',#499,#385,#386);
#333=AXIS2_PLACEMENT_3D('',#500,#387,#388);
#334=AXIS2_PLACEMENT_3D('',#502,#389,#390);
#335=AXIS2_PLACEMENT_3D('',#504,#391,#392);
#336=AXIS2_PLACEMENT_3D('',#506,#393,#394);
#337=AXIS2_PLACEMENT_3D('',#507,#395,#396);
#338=AXIS2_PLACEMENT_3D('',#508,#397,#398);
#339=AXIS2_PLACEMENT_3D('',#510,#399,#400);
#340=AXIS2_PLACEMENT_3D('',#512,#401,#402);
#341=AXIS2_PLACEMENT_3D('',#514,#403,#404);
#342=AXIS2_PLACEMENT_3D('',#516,#405,#406);
#343=AXIS2_PLACEMENT_3D('',#518,#407,#408);
#344=AXIS2_PLACEMENT_3D('',#519,#409,#410);
#345=AXIS2_PLACEMENT_3D('',#521,#411,#412);
#346=AXIS2_PLACEMENT_3D('',#523,#414,#415);
#347=AXIS2_PLACEMENT_3D('',#525,#416,#417);
#348=AXIS2_PLACEMENT_3D('',#526,#418,#419);
#349=AXIS2_PLACEMENT_3D('',#527,#420,#421);
#350=AXIS2_PLACEMENT_3D('',#529,#422,#423);
#351=AXIS2_PLACEMENT_3D('',#531,#425,#426);
#352=AXIS2_PLACEMENT_3D('',#533,#427,#428);
#353=AXIS2_PLACEMENT_3D('',#534,#429,#430);
#354=AXIS2_PLACEMENT_3D('',#535,#431,#432);
#355=AXIS2_PLACEMENT_3D('',#537,#433,#434);
#356=AXIS2_PLACEMENT_3D('',#539,#436,#437);
#357=AXIS2_PLACEMENT_3D('',#541,#438,#439);
#358=AXIS2_PLACEMENT_3D('',#542,#440,#441);
#359=AXIS2_PLACEMENT_3D('',#543,#442,#443);
#360=AXIS2_PLACEMENT_3D('',#545,#444,#445);
#361=AXIS2_PLACEMENT_3D('',#547,#447,#448);
#362=AXIS2_PLACEMENT_3D('',#549,#449,#450);
#363=AXIS2_PLACEMENT_3D('',#550,#451,#452);
#364=AXIS2_PLACEMENT_3D('',#551,#453,#454);
#365=AXIS2_PLACEMENT_3D('',#553,#455,#456);
#366=AXIS2_PLACEMENT_3D('',#555,#458,#459);
#367=AXIS2_PLACEMENT_3D('',#557,#460,#461);
#368=AXIS2_PLACEMENT_3D('',#559,#462,#463);
#369=AXIS2_PLACEMENT_3D('',#561,#464,#465);
#370=AXIS2_PLACEMENT_3D('',#562,#466,#467);
#371=AXIS2_PLACEMENT_3D('',#563,#468,#469);
#372=AXIS2_PLACEMENT_3D('',#565,#470,#471);
#373=AXIS2_PLACEMENT_3D('',#566,#472,#473);
#374=AXIS2_PLACEMENT_3D('',#569,#475,#476);
#375=AXIS2_PLACEMENT_3D('',#598,#477,#478);
#376=AXIS2_PLACEMENT_3D('',#599,#479,#480);
#377=AXIS2_PLACEMENT_3D('',#600,#481,#482);
#378=AXIS2_PLACEMENT_3D('',#602,#483,#484);
#379=AXIS2_PLACEMENT_3D('',#605,#486,#487);
#380=AXIS2_PLACEMENT_3D('',#606,#488,#489);
#381=AXIS2_PLACEMENT_3D('',#607,#490,#491);
#382=AXIS2_PLACEMENT_3D('',#609,#492,#493);
#383=AXIS2_PLACEMENT_3D('',#610,#494,#495);
#384=AXIS2_PLACEMENT_3D('',#611,#496,#497);
#385=DIRECTION('axis',(0.,0.,1.));
#386=DIRECTION('refdir',(1.,0.,0.));
#387=DIRECTION('center_axis',(0.,0.,1.));
#388=DIRECTION('ref_axis',(1.,0.,0.));
#389=DIRECTION('center_axis',(0.,0.,-1.));
#390=DIRECTION('ref_axis',(-1.,0.,0.));
#391=DIRECTION('center_axis',(1.22464679914735E-16,-1.,0.));
#392=DIRECTION('ref_axis',(-1.,-1.22464679914735E-16,0.));
#393=DIRECTION('center_axis',(0.,0.,1.));
#394=DIRECTION('ref_axis',(-1.,0.,0.));
#395=DIRECTION('center_axis',(0.,0.,1.));
#396=DIRECTION('ref_axis',(-1.,0.,0.));
#397=DIRECTION('center_axis',(0.,0.,1.));
#398=DIRECTION('ref_axis',(1.,0.,0.));
#399=DIRECTION('center_axis',(0.,0.,1.));
#400=DIRECTION('ref_axis',(1.,0.,0.));
#401=DIRECTION('center_axis',(0.,0.,-1.));
#402=DIRECTION('ref_axis',(1.,0.,0.));
#403=DIRECTION('center_axis',(0.,0.,-1.));
#404=DIRECTION('ref_axis',(1.,0.,0.));
#405=DIRECTION('center_axis',(0.,0.,-1.));
#406=DIRECTION('ref_axis',(1.,0.,0.));
#407=DIRECTION('center_axis',(0.,0.,-1.));
#408=DIRECTION('ref_axis',(1.,0.,0.));
#409=DIRECTION('center_axis',(0.,0.,-1.));
#410=DIRECTION('ref_axis',(-1.,0.,0.));
#411=DIRECTION('center_axis',(0.,0.,-1.));
#412=DIRECTION('ref_axis',(-1.,0.,0.));
#413=DIRECTION('',(0.,0.,-1.));
#414=DIRECTION('center_axis',(0.,0.,1.));
#415=DIRECTION('ref_axis',(1.,0.,0.));
#416=DIRECTION('center_axis',(1.22464679914735E-16,-1.,0.));
#417=DIRECTION('ref_axis',(-1.,-1.22464679914735E-16,0.));
#418=DIRECTION('center_axis',(0.,0.,1.));
#419=DIRECTION('ref_axis',(1.,0.,0.));
#420=DIRECTION('center_axis',(0.,0.,-1.));
#421=DIRECTION('ref_axis',(1.,0.,0.));
#422=DIRECTION('center_axis',(0.,0.,-1.));
#423=DIRECTION('ref_axis',(1.,0.,0.));
#424=DIRECTION('',(0.,0.,-1.));
#425=DIRECTION('center_axis',(0.,0.,1.));
#426=DIRECTION('ref_axis',(1.,0.,0.));
#427=DIRECTION('center_axis',(0.,-1.,0.));
#428=DIRECTION('ref_axis',(-1.,0.,0.));
#429=DIRECTION('center_axis',(0.,0.,1.));
#430=DIRECTION('ref_axis',(1.,0.,0.));
#431=DIRECTION('center_axis',(0.,0.,-1.));
#432=DIRECTION('ref_axis',(1.,0.,0.));
#433=DIRECTION('center_axis',(0.,0.,-1.));
#434=DIRECTION('ref_axis',(1.,0.,0.));
#435=DIRECTION('',(0.,0.,-1.));
#436=DIRECTION('center_axis',(0.,0.,1.));
#437=DIRECTION('ref_axis',(1.,0.,0.));
#438=DIRECTION('center_axis',(1.22464679914735E-16,-1.,0.));
#439=DIRECTION('ref_axis',(-1.,-1.22464679914735E-16,0.));
#440=DIRECTION('center_axis',(0.,0.,1.));
#441=DIRECTION('ref_axis',(1.,0.,0.));
#442=DIRECTION('center_axis',(0.,0.,-1.));
#443=DIRECTION('ref_axis',(1.,0.,0.));
#444=DIRECTION('center_axis',(0.,0.,-1.));
#445=DIRECTION('ref_axis',(1.,0.,0.));
#446=DIRECTION('',(0.,0.,-1.));
#447=DIRECTION('center_axis',(0.,0.,1.));
#448=DIRECTION('ref_axis',(1.,0.,0.));
#449=DIRECTION('center_axis',(0.,-1.,0.));
#450=DIRECTION('ref_axis',(-1.,0.,0.));
#451=DIRECTION('center_axis',(0.,0.,1.));
#452=DIRECTION('ref_axis',(1.,0.,0.));
#453=DIRECTION('center_axis',(0.,0.,-1.));
#454=DIRECTION('ref_axis',(1.,0.,0.));
#455=DIRECTION('center_axis',(0.,0.,-1.));
#456=DIRECTION('ref_axis',(1.,0.,0.));
#457=DIRECTION('',(0.,0.,-1.));
#458=DIRECTION('center_axis',(0.,0.,1.));
#459=DIRECTION('ref_axis',(1.,0.,0.));
#460=DIRECTION('center_axis',(0.,0.,-1.));
#461=DIRECTION('ref_axis',(-1.,0.,0.));
#462=DIRECTION('center_axis',(1.22464679914735E-16,-1.,0.));
#463=DIRECTION('ref_axis',(-1.,-1.22464679914735E-16,0.));
#464=DIRECTION('center_axis',(0.,0.,1.));
#465=DIRECTION('ref_axis',(-1.,0.,0.));
#466=DIRECTION('center_axis',(0.,0.,1.));
#467=DIRECTION('ref_axis',(-1.,0.,0.));
#468=DIRECTION('center_axis',(0.,0.,1.));
#469=DIRECTION('ref_axis',(1.,0.,0.));
#470=DIRECTION('center_axis',(0.,0.,1.));
#471=DIRECTION('ref_axis',(1.,0.,0.));
#472=DIRECTION('center_axis',(0.,0.,-1.));
#473=DIRECTION('ref_axis',(-1.,0.,0.));
#474=DIRECTION('',(0.,0.,-1.));
#475=DIRECTION('center_axis',(0.,0.,1.));
#476=DIRECTION('ref_axis',(-1.,0.,0.));
#477=DIRECTION('center_axis',(1.22464679914735E-16,-1.,0.));
#478=DIRECTION('ref_axis',(-1.,-1.22464679914735E-16,0.));
#479=DIRECTION('center_axis',(0.,0.,1.));
#480=DIRECTION('ref_axis',(-1.,0.,0.));
#481=DIRECTION('center_axis',(0.,0.,-1.));
#482=DIRECTION('ref_axis',(-1.,0.,0.));
#483=DIRECTION('center_axis',(0.,0.,-1.));
#484=DIRECTION('ref_axis',(-1.,0.,0.));
#485=DIRECTION('',(0.,0.,-1.));
#486=DIRECTION('center_axis',(0.,0.,-1.));
#487=DIRECTION('ref_axis',(-1.,0.,0.));
#488=DIRECTION('center_axis',(0.,0.,1.));
#489=DIRECTION('ref_axis',(-1.,0.,0.));
#490=DIRECTION('center_axis',(0.,0.,1.));
#491=DIRECTION('ref_axis',(1.,0.,0.));
#492=DIRECTION('center_axis',(0.,0.,1.));
#493=DIRECTION('ref_axis',(1.,0.,0.));
#494=DIRECTION('center_axis',(0.,0.,1.));
#495=DIRECTION('ref_axis',(-1.,0.,0.));
#496=DIRECTION('center_axis',(0.,0.,1.));
#497=DIRECTION('ref_axis',(1.,0.,0.));
#498=DIRECTION('',(0.,0.,-1.));
#499=CARTESIAN_POINT('',(0.,0.,0.));
#500=CARTESIAN_POINT('Origin',(0.,0.,0.2));
#501=CARTESIAN_POINT('',(-5.1,-6.2456986756515E-16,0.));
#502=CARTESIAN_POINT('Origin',(0.,0.,0.));
#503=CARTESIAN_POINT('',(-4.9,-6.00076931582203E-16,0.2));
#504=CARTESIAN_POINT('Origin',(-5.1,-6.2456986756515E-16,0.2));
#505=CARTESIAN_POINT('',(4.9,6.00076931582203E-16,0.2));
#506=CARTESIAN_POINT('Origin',(0.,0.,0.2));
#507=CARTESIAN_POINT('Origin',(0.,0.,0.2));
#508=CARTESIAN_POINT('Origin',(0.,0.,0.));
#509=CARTESIAN_POINT('',(-57.,-6.98048675513991E-15,0.));
#510=CARTESIAN_POINT('Origin',(0.,0.,0.));
#511=CARTESIAN_POINT('',(12.2000002235174,3.42901103761259E-16,0.));
#512=CARTESIAN_POINT('Origin',(15.0000002235174,0.,0.));
#513=CARTESIAN_POINT('',(-17.8000002235174,3.42901103761259E-16,0.));
#514=CARTESIAN_POINT('Origin',(-15.0000002235174,0.,0.));
#515=CARTESIAN_POINT('',(-2.8,15.0000002235174,0.));
#516=CARTESIAN_POINT('Origin',(0.,15.0000002235174,0.));
#517=CARTESIAN_POINT('',(-2.8,-15.0000002235174,0.));
#518=CARTESIAN_POINT('Origin',(0.,-15.0000002235174,0.));
#519=CARTESIAN_POINT('Origin',(0.,0.,5.));
#520=CARTESIAN_POINT('',(4.9,-6.00076931582203E-16,6.));
#521=CARTESIAN_POINT('Origin',(0.,0.,6.));
#522=CARTESIAN_POINT('',(4.9,-6.00076931582203E-16,5.));
#523=CARTESIAN_POINT('Origin',(15.0000002235174,0.,0.2));
#524=CARTESIAN_POINT('',(12.4000002235174,-3.18408167778312E-16,0.2));
#525=CARTESIAN_POINT('Origin',(12.2000002235174,-3.42901103761259E-16,0.2));
#526=CARTESIAN_POINT('Origin',(15.0000002235174,0.,0.2));
#527=CARTESIAN_POINT('Origin',(15.0000002235174,0.,2.5));
#528=CARTESIAN_POINT('',(12.4000002235174,3.18408167778312E-16,6.));
#529=CARTESIAN_POINT('Origin',(15.0000002235174,0.,6.));
#530=CARTESIAN_POINT('',(12.4000002235174,3.18408167778312E-16,2.5));
#531=CARTESIAN_POINT('Origin',(0.,-15.0000002235174,0.2));
#532=CARTESIAN_POINT('',(-2.6,-15.0000002235174,0.2));
#533=CARTESIAN_POINT('Origin',(-2.8,-15.0000002235174,0.2));
#534=CARTESIAN_POINT('Origin',(0.,-15.0000002235174,0.2));
#535=CARTESIAN_POINT('Origin',(0.,-15.0000002235174,2.5));
#536=CARTESIAN_POINT('',(-2.6,-15.0000002235174,6.));
#537=CARTESIAN_POINT('Origin',(0.,-15.0000002235174,6.));
#538=CARTESIAN_POINT('',(-2.6,-15.0000002235174,2.5));
#539=CARTESIAN_POINT('Origin',(-15.0000002235174,0.,0.2));
#540=CARTESIAN_POINT('',(-17.6000002235174,-3.18408167778312E-16,0.2));
#541=CARTESIAN_POINT('Origin',(-17.8000002235174,-3.42901103761259E-16,
0.2));
#542=CARTESIAN_POINT('Origin',(-15.0000002235174,0.,0.2));
#543=CARTESIAN_POINT('Origin',(-15.0000002235174,0.,2.5));
#544=CARTESIAN_POINT('',(-17.6000002235174,3.18408167778312E-16,6.));
#545=CARTESIAN_POINT('Origin',(-15.0000002235174,0.,6.));
#546=CARTESIAN_POINT('',(-17.6000002235174,3.18408167778312E-16,2.5));
#547=CARTESIAN_POINT('Origin',(0.,15.0000002235174,0.2));
#548=CARTESIAN_POINT('',(-2.6,15.0000002235174,0.2));
#549=CARTESIAN_POINT('Origin',(-2.8,15.0000002235174,0.2));
#550=CARTESIAN_POINT('Origin',(0.,15.0000002235174,0.2));
#551=CARTESIAN_POINT('Origin',(0.,15.0000002235174,2.5));
#552=CARTESIAN_POINT('',(-2.6,15.0000002235174,6.));
#553=CARTESIAN_POINT('Origin',(0.,15.0000002235174,6.));
#554=CARTESIAN_POINT('',(-2.6,15.0000002235174,2.5));
#555=CARTESIAN_POINT('Origin',(0.,0.,4.6));
#556=CARTESIAN_POINT('',(-53.1,-6.50287450347245E-15,5.));
#557=CARTESIAN_POINT('Origin',(0.,0.,5.));
#558=CARTESIAN_POINT('',(-53.5,-6.55186037543834E-15,4.6));
#559=CARTESIAN_POINT('Origin',(-53.1,-6.50287450347245E-15,4.6));
#560=CARTESIAN_POINT('',(53.5,6.55186037543834E-15,4.6));
#561=CARTESIAN_POINT('Origin',(0.,0.,4.6));
#562=CARTESIAN_POINT('Origin',(0.,0.,4.6));
#563=CARTESIAN_POINT('Origin',(0.,0.,5.));
#564=CARTESIAN_POINT('',(-50.8313007374329,-6.22503897445937E-15,5.));
#565=CARTESIAN_POINT('Origin',(0.,0.,5.));
#566=CARTESIAN_POINT('Origin',(0.,0.,5.));
#567=CARTESIAN_POINT('',(53.5,6.55186037543834E-15,3.3));
#568=CARTESIAN_POINT('',(53.5,-6.55186037543834E-15,5.));
#569=CARTESIAN_POINT('Origin',(0.,0.,3.3));
#570=CARTESIAN_POINT('Ctrl Pts',(-23.5,0.,6.00000000000001));
#571=CARTESIAN_POINT('Ctrl Pts',(-23.5,-23.5,6.00000000000001));
#572=CARTESIAN_POINT('Ctrl Pts',(0.,-23.5,6.00000000000001));
#573=CARTESIAN_POINT('Ctrl Pts',(23.5,-23.5,6.00000000000001));
#574=CARTESIAN_POINT('Ctrl Pts',(23.5,0.,6.00000000000001));
#575=CARTESIAN_POINT('Ctrl Pts',(23.5,23.5,6.00000000000001));
#576=CARTESIAN_POINT('Ctrl Pts',(0.,23.5,6.00000000000001));
#577=CARTESIAN_POINT('Ctrl Pts',(-23.5,23.5,6.00000000000001));
#578=CARTESIAN_POINT('Ctrl Pts',(-23.5,0.,6.00000000000001));
#579=CARTESIAN_POINT('Ctrl Pts',(-37.1473563253849,0.,5.));
#580=CARTESIAN_POINT('Ctrl Pts',(-37.1473563253849,-37.1473563253849,5.));
#581=CARTESIAN_POINT('Ctrl Pts',(0.,-37.1473563253849,5.));
#582=CARTESIAN_POINT('Ctrl Pts',(37.1473563253849,-37.1473563253849,5.));
#583=CARTESIAN_POINT('Ctrl Pts',(37.1473563253849,0.,5.));
#584=CARTESIAN_POINT('Ctrl Pts',(37.1473563253849,37.1473563253849,5.));
#585=CARTESIAN_POINT('Ctrl Pts',(0.,37.1473563253849,5.));
#586=CARTESIAN_POINT('Ctrl Pts',(-37.1473563253849,37.1473563253849,5.));
#587=CARTESIAN_POINT('Ctrl Pts',(-37.1473563253849,0.,5.));
#588=CARTESIAN_POINT('Ctrl Pts',(-50.8313007374329,0.,5.));
#589=CARTESIAN_POINT('Ctrl Pts',(-50.8313007374329,-50.8313007374329,5.));
#590=CARTESIAN_POINT('Ctrl Pts',(0.,-50.8313007374329,5.));
#591=CARTESIAN_POINT('Ctrl Pts',(50.8313007374329,-50.8313007374329,5.));
#592=CARTESIAN_POINT('Ctrl Pts',(50.8313007374329,0.,5.));
#593=CARTESIAN_POINT('Ctrl Pts',(50.8313007374329,50.8313007374329,5.));
#594=CARTESIAN_POINT('Ctrl Pts',(0.,50.8313007374329,5.));
#595=CARTESIAN_POINT('Ctrl Pts',(-50.8313007374329,50.8313007374329,5.));
#596=CARTESIAN_POINT('Ctrl Pts',(-50.8313007374329,0.,5.));
#597=CARTESIAN_POINT('',(-23.5,-2.87791997799628E-15,6.00000000000001));
#598=CARTESIAN_POINT('Origin',(-50.8313007374329,-6.22503897445937E-15,
379.));
#599=CARTESIAN_POINT('Origin',(0.,0.,6.));
#600=CARTESIAN_POINT('Origin',(0.,0.,5.));
#601=CARTESIAN_POINT('',(56.,6.85802207522518E-15,5.));
#602=CARTESIAN_POINT('Origin',(0.,0.,5.));
#603=CARTESIAN_POINT('',(56.,6.85802207522518E-15,3.3));
#604=CARTESIAN_POINT('',(56.,-6.85802207522518E-15,5.));
#605=CARTESIAN_POINT('Origin',(0.,0.,3.3));
#606=CARTESIAN_POINT('Origin',(0.,0.,3.3));
#607=CARTESIAN_POINT('Origin',(0.,0.,5.));
#608=CARTESIAN_POINT('',(-57.,-6.98048675513991E-15,5.));
#609=CARTESIAN_POINT('Origin',(0.,0.,5.));
#610=CARTESIAN_POINT('Origin',(0.,0.,6.));
#611=CARTESIAN_POINT('Origin',(0.,0.,0.));
#612=CARTESIAN_POINT('',(-57.,-6.98048675513991E-15,0.));
#613=UNCERTAINTY_MEASURE_WITH_UNIT(LENGTH_MEASURE(0.01),#617,
'DISTANCE_ACCURACY_VALUE',
'Maximum model space distance between geometric entities at asserted c
onnectivities');
#614=UNCERTAINTY_MEASURE_WITH_UNIT(LENGTH_MEASURE(0.01),#617,
'DISTANCE_ACCURACY_VALUE',
'Maximum model space distance between geometric entities at asserted c
onnectivities');
#615=(
GEOMETRIC_REPRESENTATION_CONTEXT(3)
GLOBAL_UNCERTAINTY_ASSIGNED_CONTEXT((#613))
GLOBAL_UNIT_ASSIGNED_CONTEXT((#617,#619,#620))
REPRESENTATION_CONTEXT('','3D')
);
#616=(
GEOMETRIC_REPRESENTATION_CONTEXT(3)
GLOBAL_UNCERTAINTY_ASSIGNED_CONTEXT((#614))
GLOBAL_UNIT_ASSIGNED_CONTEXT((#617,#619,#620))
REPRESENTATION_CONTEXT('','3D')
);
#617=(
LENGTH_UNIT()
NAMED_UNIT(*)
SI_UNIT(.MILLI.,.METRE.)
);
#618=(
LENGTH_UNIT()
NAMED_UNIT(*)
SI_UNIT($,.METRE.)
);
#619=(
NAMED_UNIT(*)
PLANE_ANGLE_UNIT()
SI_UNIT($,.RADIAN.)
);
#620=(
NAMED_UNIT(*)
SI_UNIT($,.STERADIAN.)
SOLID_ANGLE_UNIT()
);
#621=SHAPE_DEFINITION_REPRESENTATION(#622,#623);
#622=PRODUCT_DEFINITION_SHAPE('',$,#625);
#623=SHAPE_REPRESENTATION('',(#332),#615);
#624=PRODUCT_DEFINITION_CONTEXT('part definition',#629,'design');
#625=PRODUCT_DEFINITION('Flasque cone','Flasque cone v4',#626,#624);
#626=PRODUCT_DEFINITION_FORMATION('',$,#631);
#627=PRODUCT_RELATED_PRODUCT_CATEGORY('Flasque cone v4',
'Flasque cone v4',(#631));
#628=APPLICATION_PROTOCOL_DEFINITION('international standard',
'automotive_design',2009,#629);
#629=APPLICATION_CONTEXT(
'Core Data for Automotive Mechanical Design Process');
#630=PRODUCT_CONTEXT('part definition',#629,'mechanical');
#631=PRODUCT('Flasque cone','Flasque cone v4',$,(#630));
#632=PRESENTATION_STYLE_ASSIGNMENT((#633));
#633=SURFACE_STYLE_USAGE(.BOTH.,#634);
#634=SURFACE_SIDE_STYLE('',(#635));
#635=SURFACE_STYLE_FILL_AREA(#636);
#636=FILL_AREA_STYLE('Acier - Satin\X\E9',(#637));
#637=FILL_AREA_STYLE_COLOUR('Acier - Satin\X\E9',#638);
#638=COLOUR_RGB('Acier - Satin\X\E9',0.627450980392157,0.627450980392157,
0.627450980392157);
ENDSEC;
END-ISO-10303-21;
