ISO-10303-21;
HEADER;
/* Generated by software containing ST-Developer
 * from STEP Tools, Inc. (www.steptools.com) 
 */

FILE_DESCRIPTION(
/* description */ (''),
/* implementation_level */ '2;1');

FILE_NAME(
/* name */ 'Supp Core v1.step',
/* time_stamp */ '2024-10-16T11:15:21+02:00',
/* author */ (''),
/* organization */ (''),
/* preprocessor_version */ 'ST-DEVELOPER v20',
/* originating_system */ 'Autodesk Translation Framework v13.20.0.188',

/* authorisation */ '');

FILE_SCHEMA (('AUTOMOTIVE_DESIGN { 1 0 10303 214 3 1 1 }'));
ENDSEC;

DATA;
#10=MECHANICAL_DESIGN_GEOMETRIC_PRESENTATION_REPRESENTATION('',(#13),#529);
#11=SHAPE_REPRESENTATION_RELATIONSHIP('SRR','None',#536,#12);
#12=ADVANCED_BREP_SHAPE_REPRESENTATION('',(#14),#528);
#13=STYLED_ITEM('',(#545),#14);
#14=MANIFOLD_SOLID_BREP('Corps1',#310);
#15=FACE_BOUND('',#59,.T.);
#16=FACE_BOUND('',#67,.T.);
#17=FACE_BOUND('',#69,.T.);
#18=CONICAL_SURFACE('',#335,7.,0.785398163397448);
#19=CYLINDRICAL_SURFACE('',#330,10.);
#20=CYLINDRICAL_SURFACE('',#339,7.5);
#21=CYLINDRICAL_SURFACE('',#341,6.5);
#22=CIRCLE('',#326,10.);
#23=CIRCLE('',#329,10.);
#24=CIRCLE('',#331,10.);
#25=CIRCLE('',#332,10.);
#26=CIRCLE('',#333,10.);
#27=CIRCLE('',#334,10.);
#28=CIRCLE('',#336,7.5);
#29=CIRCLE('',#337,7.5);
#30=CIRCLE('',#338,6.5);
#31=CIRCLE('',#340,7.5);
#32=CIRCLE('',#342,6.5);
#33=FACE_OUTER_BOUND('',#50,.T.);
#34=FACE_OUTER_BOUND('',#51,.T.);
#35=FACE_OUTER_BOUND('',#52,.T.);
#36=FACE_OUTER_BOUND('',#53,.T.);
#37=FACE_OUTER_BOUND('',#54,.T.);
#38=FACE_OUTER_BOUND('',#55,.T.);
#39=FACE_OUTER_BOUND('',#56,.T.);
#40=FACE_OUTER_BOUND('',#57,.T.);
#41=FACE_OUTER_BOUND('',#58,.T.);
#42=FACE_OUTER_BOUND('',#60,.T.);
#43=FACE_OUTER_BOUND('',#61,.T.);
#44=FACE_OUTER_BOUND('',#62,.T.);
#45=FACE_OUTER_BOUND('',#63,.T.);
#46=FACE_OUTER_BOUND('',#64,.T.);
#47=FACE_OUTER_BOUND('',#65,.T.);
#48=FACE_OUTER_BOUND('',#66,.T.);
#49=FACE_OUTER_BOUND('',#68,.T.);
#50=EDGE_LOOP('',(#198,#199,#200,#201));
#51=EDGE_LOOP('',(#202,#203));
#52=EDGE_LOOP('',(#204,#205,#206,#207));
#53=EDGE_LOOP('',(#208,#209));
#54=EDGE_LOOP('',(#210,#211,#212,#213,#214,#215,#216,#217,#218,#219,#220,
#221));
#55=EDGE_LOOP('',(#222,#223,#224,#225,#226));
#56=EDGE_LOOP('',(#227,#228,#229,#230,#231));
#57=EDGE_LOOP('',(#232,#233,#234,#235));
#58=EDGE_LOOP('',(#236,#237,#238,#239,#240));
#59=EDGE_LOOP('',(#241));
#60=EDGE_LOOP('',(#242,#243,#244,#245));
#61=EDGE_LOOP('',(#246,#247,#248,#249));
#62=EDGE_LOOP('',(#250,#251,#252,#253));
#63=EDGE_LOOP('',(#254,#255,#256,#257));
#64=EDGE_LOOP('',(#258,#259,#260,#261));
#65=EDGE_LOOP('',(#262,#263,#264,#265));
#66=EDGE_LOOP('',(#266,#267,#268,#269,#270,#271));
#67=EDGE_LOOP('',(#272));
#68=EDGE_LOOP('',(#273,#274,#275,#276,#277,#278));
#69=EDGE_LOOP('',(#279));
#70=LINE('',#444,#100);
#71=LINE('',#446,#101);
#72=LINE('',#448,#102);
#73=LINE('',#449,#103);
#74=LINE('',#455,#104);
#75=LINE('',#457,#105);
#76=LINE('',#459,#106);
#77=LINE('',#460,#107);
#78=LINE('',#467,#108);
#79=LINE('',#477,#109);
#80=LINE('',#481,#110);
#81=LINE('',#485,#111);
#82=LINE('',#491,#112);
#83=LINE('',#493,#113);
#84=LINE('',#495,#114);
#85=LINE('',#496,#115);
#86=LINE('',#499,#116);
#87=LINE('',#501,#117);
#88=LINE('',#502,#118);
#89=LINE('',#505,#119);
#90=LINE('',#507,#120);
#91=LINE('',#508,#121);
#92=LINE('',#511,#122);
#93=LINE('',#513,#123);
#94=LINE('',#514,#124);
#95=LINE('',#517,#125);
#96=LINE('',#519,#126);
#97=LINE('',#520,#127);
#98=LINE('',#522,#128);
#99=LINE('',#523,#129);
#100=VECTOR('',#356,10.);
#101=VECTOR('',#357,10.);
#102=VECTOR('',#358,10.);
#103=VECTOR('',#359,10.);
#104=VECTOR('',#366,10.);
#105=VECTOR('',#367,10.);
#106=VECTOR('',#368,10.);
#107=VECTOR('',#369,10.);
#108=VECTOR('',#378,10.);
#109=VECTOR('',#391,7.);
#110=VECTOR('',#396,7.5);
#111=VECTOR('',#401,6.5);
#112=VECTOR('',#408,10.);
#113=VECTOR('',#409,10.);
#114=VECTOR('',#410,10.);
#115=VECTOR('',#411,10.);
#116=VECTOR('',#414,10.);
#117=VECTOR('',#415,10.);
#118=VECTOR('',#416,10.);
#119=VECTOR('',#419,10.);
#120=VECTOR('',#420,10.);
#121=VECTOR('',#421,10.);
#122=VECTOR('',#424,10.);
#123=VECTOR('',#425,10.);
#124=VECTOR('',#426,10.);
#125=VECTOR('',#429,10.);
#126=VECTOR('',#430,10.);
#127=VECTOR('',#431,10.);
#128=VECTOR('',#434,10.);
#129=VECTOR('',#435,10.);
#130=VERTEX_POINT('',#442);
#131=VERTEX_POINT('',#443);
#132=VERTEX_POINT('',#445);
#133=VERTEX_POINT('',#447);
#134=VERTEX_POINT('',#453);
#135=VERTEX_POINT('',#454);
#136=VERTEX_POINT('',#456);
#137=VERTEX_POINT('',#458);
#138=VERTEX_POINT('',#464);
#139=VERTEX_POINT('',#466);
#140=VERTEX_POINT('',#472);
#141=VERTEX_POINT('',#473);
#142=VERTEX_POINT('',#476);
#143=VERTEX_POINT('',#480);
#144=VERTEX_POINT('',#484);
#145=VERTEX_POINT('',#489);
#146=VERTEX_POINT('',#490);
#147=VERTEX_POINT('',#492);
#148=VERTEX_POINT('',#494);
#149=VERTEX_POINT('',#498);
#150=VERTEX_POINT('',#500);
#151=VERTEX_POINT('',#504);
#152=VERTEX_POINT('',#506);
#153=VERTEX_POINT('',#510);
#154=VERTEX_POINT('',#512);
#155=VERTEX_POINT('',#516);
#156=VERTEX_POINT('',#518);
#157=EDGE_CURVE('',#130,#131,#70,.T.);
#158=EDGE_CURVE('',#132,#130,#71,.T.);
#159=EDGE_CURVE('',#132,#133,#72,.T.);
#160=EDGE_CURVE('',#131,#133,#73,.T.);
#161=EDGE_CURVE('',#133,#132,#22,.T.);
#162=EDGE_CURVE('',#134,#135,#74,.T.);
#163=EDGE_CURVE('',#136,#134,#75,.T.);
#164=EDGE_CURVE('',#136,#137,#76,.T.);
#165=EDGE_CURVE('',#135,#137,#77,.T.);
#166=EDGE_CURVE('',#137,#136,#23,.T.);
#167=EDGE_CURVE('',#138,#130,#24,.T.);
#168=EDGE_CURVE('',#138,#139,#78,.T.);
#169=EDGE_CURVE('',#139,#139,#25,.T.);
#170=EDGE_CURVE('',#135,#138,#26,.T.);
#171=EDGE_CURVE('',#131,#134,#27,.T.);
#172=EDGE_CURVE('',#140,#141,#28,.T.);
#173=EDGE_CURVE('',#141,#140,#29,.T.);
#174=EDGE_CURVE('',#140,#142,#79,.T.);
#175=EDGE_CURVE('',#142,#142,#30,.T.);
#176=EDGE_CURVE('',#141,#143,#80,.T.);
#177=EDGE_CURVE('',#143,#143,#31,.T.);
#178=EDGE_CURVE('',#142,#144,#81,.T.);
#179=EDGE_CURVE('',#144,#144,#32,.T.);
#180=EDGE_CURVE('',#145,#146,#82,.T.);
#181=EDGE_CURVE('',#146,#147,#83,.T.);
#182=EDGE_CURVE('',#148,#147,#84,.T.);
#183=EDGE_CURVE('',#145,#148,#85,.T.);
#184=EDGE_CURVE('',#149,#145,#86,.T.);
#185=EDGE_CURVE('',#150,#148,#87,.T.);
#186=EDGE_CURVE('',#149,#150,#88,.T.);
#187=EDGE_CURVE('',#151,#149,#89,.T.);
#188=EDGE_CURVE('',#152,#150,#90,.T.);
#189=EDGE_CURVE('',#151,#152,#91,.T.);
#190=EDGE_CURVE('',#153,#151,#92,.T.);
#191=EDGE_CURVE('',#154,#152,#93,.T.);
#192=EDGE_CURVE('',#153,#154,#94,.T.);
#193=EDGE_CURVE('',#155,#153,#95,.T.);
#194=EDGE_CURVE('',#156,#154,#96,.T.);
#195=EDGE_CURVE('',#155,#156,#97,.T.);
#196=EDGE_CURVE('',#146,#155,#98,.T.);
#197=EDGE_CURVE('',#147,#156,#99,.T.);
#198=ORIENTED_EDGE('',*,*,#157,.F.);
#199=ORIENTED_EDGE('',*,*,#158,.F.);
#200=ORIENTED_EDGE('',*,*,#159,.T.);
#201=ORIENTED_EDGE('',*,*,#160,.F.);
#202=ORIENTED_EDGE('',*,*,#161,.F.);
#203=ORIENTED_EDGE('',*,*,#159,.F.);
#204=ORIENTED_EDGE('',*,*,#162,.F.);
#205=ORIENTED_EDGE('',*,*,#163,.F.);
#206=ORIENTED_EDGE('',*,*,#164,.T.);
#207=ORIENTED_EDGE('',*,*,#165,.F.);
#208=ORIENTED_EDGE('',*,*,#166,.F.);
#209=ORIENTED_EDGE('',*,*,#164,.F.);
#210=ORIENTED_EDGE('',*,*,#160,.T.);
#211=ORIENTED_EDGE('',*,*,#161,.T.);
#212=ORIENTED_EDGE('',*,*,#158,.T.);
#213=ORIENTED_EDGE('',*,*,#167,.F.);
#214=ORIENTED_EDGE('',*,*,#168,.T.);
#215=ORIENTED_EDGE('',*,*,#169,.F.);
#216=ORIENTED_EDGE('',*,*,#168,.F.);
#217=ORIENTED_EDGE('',*,*,#170,.F.);
#218=ORIENTED_EDGE('',*,*,#165,.T.);
#219=ORIENTED_EDGE('',*,*,#166,.T.);
#220=ORIENTED_EDGE('',*,*,#163,.T.);
#221=ORIENTED_EDGE('',*,*,#171,.F.);
#222=ORIENTED_EDGE('',*,*,#172,.T.);
#223=ORIENTED_EDGE('',*,*,#173,.T.);
#224=ORIENTED_EDGE('',*,*,#174,.T.);
#225=ORIENTED_EDGE('',*,*,#175,.T.);
#226=ORIENTED_EDGE('',*,*,#174,.F.);
#227=ORIENTED_EDGE('',*,*,#172,.F.);
#228=ORIENTED_EDGE('',*,*,#173,.F.);
#229=ORIENTED_EDGE('',*,*,#176,.T.);
#230=ORIENTED_EDGE('',*,*,#177,.T.);
#231=ORIENTED_EDGE('',*,*,#176,.F.);
#232=ORIENTED_EDGE('',*,*,#175,.F.);
#233=ORIENTED_EDGE('',*,*,#178,.T.);
#234=ORIENTED_EDGE('',*,*,#179,.F.);
#235=ORIENTED_EDGE('',*,*,#178,.F.);
#236=ORIENTED_EDGE('',*,*,#157,.T.);
#237=ORIENTED_EDGE('',*,*,#171,.T.);
#238=ORIENTED_EDGE('',*,*,#162,.T.);
#239=ORIENTED_EDGE('',*,*,#170,.T.);
#240=ORIENTED_EDGE('',*,*,#167,.T.);
#241=ORIENTED_EDGE('',*,*,#179,.T.);
#242=ORIENTED_EDGE('',*,*,#180,.T.);
#243=ORIENTED_EDGE('',*,*,#181,.T.);
#244=ORIENTED_EDGE('',*,*,#182,.F.);
#245=ORIENTED_EDGE('',*,*,#183,.F.);
#246=ORIENTED_EDGE('',*,*,#184,.T.);
#247=ORIENTED_EDGE('',*,*,#183,.T.);
#248=ORIENTED_EDGE('',*,*,#185,.F.);
#249=ORIENTED_EDGE('',*,*,#186,.F.);
#250=ORIENTED_EDGE('',*,*,#187,.T.);
#251=ORIENTED_EDGE('',*,*,#186,.T.);
#252=ORIENTED_EDGE('',*,*,#188,.F.);
#253=ORIENTED_EDGE('',*,*,#189,.F.);
#254=ORIENTED_EDGE('',*,*,#190,.T.);
#255=ORIENTED_EDGE('',*,*,#189,.T.);
#256=ORIENTED_EDGE('',*,*,#191,.F.);
#257=ORIENTED_EDGE('',*,*,#192,.F.);
#258=ORIENTED_EDGE('',*,*,#193,.T.);
#259=ORIENTED_EDGE('',*,*,#192,.T.);
#260=ORIENTED_EDGE('',*,*,#194,.F.);
#261=ORIENTED_EDGE('',*,*,#195,.F.);
#262=ORIENTED_EDGE('',*,*,#196,.T.);
#263=ORIENTED_EDGE('',*,*,#195,.T.);
#264=ORIENTED_EDGE('',*,*,#197,.F.);
#265=ORIENTED_EDGE('',*,*,#181,.F.);
#266=ORIENTED_EDGE('',*,*,#197,.T.);
#267=ORIENTED_EDGE('',*,*,#194,.T.);
#268=ORIENTED_EDGE('',*,*,#191,.T.);
#269=ORIENTED_EDGE('',*,*,#188,.T.);
#270=ORIENTED_EDGE('',*,*,#185,.T.);
#271=ORIENTED_EDGE('',*,*,#182,.T.);
#272=ORIENTED_EDGE('',*,*,#169,.T.);
#273=ORIENTED_EDGE('',*,*,#196,.F.);
#274=ORIENTED_EDGE('',*,*,#180,.F.);
#275=ORIENTED_EDGE('',*,*,#184,.F.);
#276=ORIENTED_EDGE('',*,*,#187,.F.);
#277=ORIENTED_EDGE('',*,*,#190,.F.);
#278=ORIENTED_EDGE('',*,*,#193,.F.);
#279=ORIENTED_EDGE('',*,*,#177,.F.);
#280=PLANE('',#324);
#281=PLANE('',#325);
#282=PLANE('',#327);
#283=PLANE('',#328);
#284=PLANE('',#343);
#285=PLANE('',#344);
#286=PLANE('',#345);
#287=PLANE('',#346);
#288=PLANE('',#347);
#289=PLANE('',#348);
#290=PLANE('',#349);
#291=PLANE('',#350);
#292=PLANE('',#351);
#293=ADVANCED_FACE('',(#33),#280,.F.);
#294=ADVANCED_FACE('',(#34),#281,.T.);
#295=ADVANCED_FACE('',(#35),#282,.F.);
#296=ADVANCED_FACE('',(#36),#283,.T.);
#297=ADVANCED_FACE('',(#37),#19,.T.);
#298=ADVANCED_FACE('',(#38),#18,.F.);
#299=ADVANCED_FACE('',(#39),#20,.F.);
#300=ADVANCED_FACE('',(#40),#21,.F.);
#301=ADVANCED_FACE('',(#41,#15),#284,.T.);
#302=ADVANCED_FACE('',(#42),#285,.T.);
#303=ADVANCED_FACE('',(#43),#286,.T.);
#304=ADVANCED_FACE('',(#44),#287,.T.);
#305=ADVANCED_FACE('',(#45),#288,.T.);
#306=ADVANCED_FACE('',(#46),#289,.T.);
#307=ADVANCED_FACE('',(#47),#290,.T.);
#308=ADVANCED_FACE('',(#48,#16),#291,.T.);
#309=ADVANCED_FACE('',(#49,#17),#292,.F.);
#310=CLOSED_SHELL('',(#293,#294,#295,#296,#297,#298,#299,#300,#301,#302,
#303,#304,#305,#306,#307,#308,#309));
#311=DERIVED_UNIT_ELEMENT(#313,1.);
#312=DERIVED_UNIT_ELEMENT(#531,-3.);
#313=(
MASS_UNIT()
NAMED_UNIT(*)
SI_UNIT(.KILO.,.GRAM.)
);
#314=DERIVED_UNIT((#311,#312));
#315=MEASURE_REPRESENTATION_ITEM('density measure',
POSITIVE_RATIO_MEASURE(7850.),#314);
#316=PROPERTY_DEFINITION_REPRESENTATION(#321,#318);
#317=PROPERTY_DEFINITION_REPRESENTATION(#322,#319);
#318=REPRESENTATION('material name',(#320),#528);
#319=REPRESENTATION('density',(#315),#528);
#320=DESCRIPTIVE_REPRESENTATION_ITEM('Acier','Acier');
#321=PROPERTY_DEFINITION('material property','material name',#538);
#322=PROPERTY_DEFINITION('material property','density of part',#538);
#323=AXIS2_PLACEMENT_3D('',#440,#352,#353);
#324=AXIS2_PLACEMENT_3D('',#441,#354,#355);
#325=AXIS2_PLACEMENT_3D('',#450,#360,#361);
#326=AXIS2_PLACEMENT_3D('',#451,#362,#363);
#327=AXIS2_PLACEMENT_3D('',#452,#364,#365);
#328=AXIS2_PLACEMENT_3D('',#461,#370,#371);
#329=AXIS2_PLACEMENT_3D('',#462,#372,#373);
#330=AXIS2_PLACEMENT_3D('',#463,#374,#375);
#331=AXIS2_PLACEMENT_3D('',#465,#376,#377);
#332=AXIS2_PLACEMENT_3D('',#468,#379,#380);
#333=AXIS2_PLACEMENT_3D('',#469,#381,#382);
#334=AXIS2_PLACEMENT_3D('',#470,#383,#384);
#335=AXIS2_PLACEMENT_3D('',#471,#385,#386);
#336=AXIS2_PLACEMENT_3D('',#474,#387,#388);
#337=AXIS2_PLACEMENT_3D('',#475,#389,#390);
#338=AXIS2_PLACEMENT_3D('',#478,#392,#393);
#339=AXIS2_PLACEMENT_3D('',#479,#394,#395);
#340=AXIS2_PLACEMENT_3D('',#482,#397,#398);
#341=AXIS2_PLACEMENT_3D('',#483,#399,#400);
#342=AXIS2_PLACEMENT_3D('',#486,#402,#403);
#343=AXIS2_PLACEMENT_3D('',#487,#404,#405);
#344=AXIS2_PLACEMENT_3D('',#488,#406,#407);
#345=AXIS2_PLACEMENT_3D('',#497,#412,#413);
#346=AXIS2_PLACEMENT_3D('',#503,#417,#418);
#347=AXIS2_PLACEMENT_3D('',#509,#422,#423);
#348=AXIS2_PLACEMENT_3D('',#515,#427,#428);
#349=AXIS2_PLACEMENT_3D('',#521,#432,#433);
#350=AXIS2_PLACEMENT_3D('',#524,#436,#437);
#351=AXIS2_PLACEMENT_3D('',#525,#438,#439);
#352=DIRECTION('axis',(0.,0.,1.));
#353=DIRECTION('refdir',(1.,0.,0.));
#354=DIRECTION('center_axis',(0.,-1.,0.));
#355=DIRECTION('ref_axis',(-1.,0.,0.));
#356=DIRECTION('',(-1.,0.,0.));
#357=DIRECTION('',(0.,0.,1.));
#358=DIRECTION('',(-1.,0.,0.));
#359=DIRECTION('',(0.,0.,-1.));
#360=DIRECTION('center_axis',(0.,0.,1.));
#361=DIRECTION('ref_axis',(-1.,0.,0.));
#362=DIRECTION('center_axis',(0.,0.,-1.));
#363=DIRECTION('ref_axis',(-1.,0.,0.));
#364=DIRECTION('center_axis',(0.,1.,0.));
#365=DIRECTION('ref_axis',(1.,0.,0.));
#366=DIRECTION('',(1.,0.,0.));
#367=DIRECTION('',(0.,0.,1.));
#368=DIRECTION('',(1.,0.,0.));
#369=DIRECTION('',(0.,0.,-1.));
#370=DIRECTION('center_axis',(0.,0.,1.));
#371=DIRECTION('ref_axis',(-1.,0.,0.));
#372=DIRECTION('center_axis',(0.,0.,-1.));
#373=DIRECTION('ref_axis',(-1.,0.,0.));
#374=DIRECTION('center_axis',(0.,0.,1.));
#375=DIRECTION('ref_axis',(-1.,0.,0.));
#376=DIRECTION('center_axis',(0.,0.,1.));
#377=DIRECTION('ref_axis',(-1.,0.,0.));
#378=DIRECTION('',(0.,0.,-1.));
#379=DIRECTION('center_axis',(0.,0.,-1.));
#380=DIRECTION('ref_axis',(-1.,0.,0.));
#381=DIRECTION('center_axis',(0.,0.,1.));
#382=DIRECTION('ref_axis',(-1.,0.,0.));
#383=DIRECTION('center_axis',(0.,0.,1.));
#384=DIRECTION('ref_axis',(-1.,0.,0.));
#385=DIRECTION('center_axis',(0.,0.,-1.));
#386=DIRECTION('ref_axis',(-1.,0.,0.));
#387=DIRECTION('center_axis',(0.,0.,-1.));
#388=DIRECTION('ref_axis',(-1.,0.,0.));
#389=DIRECTION('center_axis',(0.,0.,-1.));
#390=DIRECTION('ref_axis',(-1.,0.,0.));
#391=DIRECTION('',(-0.707106781186547,8.65956056235493E-17,0.707106781186548));
#392=DIRECTION('center_axis',(0.,0.,1.));
#393=DIRECTION('ref_axis',(-1.,0.,0.));
#394=DIRECTION('center_axis',(0.,0.,1.));
#395=DIRECTION('ref_axis',(1.,0.,0.));
#396=DIRECTION('',(0.,0.,-1.));
#397=DIRECTION('center_axis',(0.,0.,-1.));
#398=DIRECTION('ref_axis',(1.,0.,0.));
#399=DIRECTION('center_axis',(0.,0.,-1.));
#400=DIRECTION('ref_axis',(-1.,0.,0.));
#401=DIRECTION('',(0.,0.,1.));
#402=DIRECTION('center_axis',(0.,0.,-1.));
#403=DIRECTION('ref_axis',(-1.,0.,0.));
#404=DIRECTION('center_axis',(0.,0.,1.));
#405=DIRECTION('ref_axis',(-1.,0.,0.));
#406=DIRECTION('center_axis',(-1.55077635998674E-15,-1.,0.));
#407=DIRECTION('ref_axis',(1.,-1.55077635998674E-15,0.));
#408=DIRECTION('',(1.,-1.55077635998674E-15,0.));
#409=DIRECTION('',(0.,0.,1.));
#410=DIRECTION('',(1.,-1.55077635998674E-15,0.));
#411=DIRECTION('',(0.,0.,1.));
#412=DIRECTION('center_axis',(-0.866025403784439,-0.5,0.));
#413=DIRECTION('ref_axis',(0.5,-0.866025403784439,0.));
#414=DIRECTION('',(0.5,-0.866025403784439,0.));
#415=DIRECTION('',(0.5,-0.866025403784439,0.));
#416=DIRECTION('',(0.,0.,1.));
#417=DIRECTION('center_axis',(-0.866025403784439,0.5,0.));
#418=DIRECTION('ref_axis',(-0.5,-0.866025403784439,0.));
#419=DIRECTION('',(-0.5,-0.866025403784439,0.));
#420=DIRECTION('',(-0.5,-0.866025403784439,0.));
#421=DIRECTION('',(0.,0.,1.));
#422=DIRECTION('center_axis',(6.20310543994698E-16,1.,0.));
#423=DIRECTION('ref_axis',(-1.,6.20310543994698E-16,0.));
#424=DIRECTION('',(-1.,6.20310543994698E-16,0.));
#425=DIRECTION('',(-1.,6.20310543994698E-16,0.));
#426=DIRECTION('',(0.,0.,1.));
#427=DIRECTION('center_axis',(0.866025403784439,0.5,0.));
#428=DIRECTION('ref_axis',(-0.5,0.866025403784439,0.));
#429=DIRECTION('',(-0.5,0.866025403784439,0.));
#430=DIRECTION('',(-0.5,0.866025403784439,0.));
#431=DIRECTION('',(0.,0.,1.));
#432=DIRECTION('center_axis',(0.866025403784438,-0.5,0.));
#433=DIRECTION('ref_axis',(0.5,0.866025403784438,0.));
#434=DIRECTION('',(0.5,0.866025403784438,0.));
#435=DIRECTION('',(0.5,0.866025403784438,0.));
#436=DIRECTION('center_axis',(0.,0.,1.));
#437=DIRECTION('ref_axis',(1.,0.,0.));
#438=DIRECTION('center_axis',(0.,0.,1.));
#439=DIRECTION('ref_axis',(1.,0.,0.));
#440=CARTESIAN_POINT('',(0.,0.,0.));
#441=CARTESIAN_POINT('Origin',(3.1224989991992,9.5,56.));
#442=CARTESIAN_POINT('',(3.1224989991992,9.5,56.));
#443=CARTESIAN_POINT('',(-3.1224989991992,9.5,56.));
#444=CARTESIAN_POINT('',(1.5612494995996,9.5,56.));
#445=CARTESIAN_POINT('',(3.1224989991992,9.5,46.));
#446=CARTESIAN_POINT('',(3.1224989991992,9.5,5.));
#447=CARTESIAN_POINT('',(-3.1224989991992,9.5,46.));
#448=CARTESIAN_POINT('',(-3.1224989991992,9.5,46.));
#449=CARTESIAN_POINT('',(-3.1224989991992,9.5,5.));
#450=CARTESIAN_POINT('Origin',(0.,9.75,46.));
#451=CARTESIAN_POINT('Origin',(0.,0.,46.));
#452=CARTESIAN_POINT('Origin',(-3.1224989991992,-9.5,56.));
#453=CARTESIAN_POINT('',(-3.1224989991992,-9.5,56.));
#454=CARTESIAN_POINT('',(3.1224989991992,-9.5,56.));
#455=CARTESIAN_POINT('',(-1.5612494995996,-9.5,56.));
#456=CARTESIAN_POINT('',(-3.1224989991992,-9.5,46.));
#457=CARTESIAN_POINT('',(-3.1224989991992,-9.5,5.));
#458=CARTESIAN_POINT('',(3.1224989991992,-9.5,46.));
#459=CARTESIAN_POINT('',(3.1224989991992,-9.5,46.));
#460=CARTESIAN_POINT('',(3.1224989991992,-9.5,5.));
#461=CARTESIAN_POINT('Origin',(5.55111512312578E-16,-9.75,46.));
#462=CARTESIAN_POINT('Origin',(0.,0.,46.));
#463=CARTESIAN_POINT('Origin',(0.,0.,5.));
#464=CARTESIAN_POINT('',(10.,1.22464679914735E-15,56.));
#465=CARTESIAN_POINT('Origin',(0.,0.,56.));
#466=CARTESIAN_POINT('',(10.,1.22464679914735E-15,5.));
#467=CARTESIAN_POINT('',(10.,1.22464679914735E-15,5.));
#468=CARTESIAN_POINT('Origin',(0.,0.,5.));
#469=CARTESIAN_POINT('Origin',(0.,0.,56.));
#470=CARTESIAN_POINT('Origin',(0.,0.,56.));
#471=CARTESIAN_POINT('Origin',(0.,0.,25.5));
#472=CARTESIAN_POINT('',(7.5,-9.18485099360515E-16,25.));
#473=CARTESIAN_POINT('',(-7.5,-9.18485099360515E-16,25.));
#474=CARTESIAN_POINT('Origin',(0.,0.,25.));
#475=CARTESIAN_POINT('Origin',(0.,0.,25.));
#476=CARTESIAN_POINT('',(6.5,7.9602041944578E-16,26.));
#477=CARTESIAN_POINT('',(7.,-8.57252759403147E-16,25.5));
#478=CARTESIAN_POINT('Origin',(0.,0.,26.));
#479=CARTESIAN_POINT('Origin',(0.,0.,0.));
#480=CARTESIAN_POINT('',(-7.5,-9.18485099360515E-16,0.));
#481=CARTESIAN_POINT('',(-7.5,-9.18485099360515E-16,0.));
#482=CARTESIAN_POINT('Origin',(0.,0.,0.));
#483=CARTESIAN_POINT('Origin',(0.,0.,56.));
#484=CARTESIAN_POINT('',(6.5,7.9602041944578E-16,56.));
#485=CARTESIAN_POINT('',(6.5,-7.9602041944578E-16,56.));
#486=CARTESIAN_POINT('Origin',(0.,0.,56.));
#487=CARTESIAN_POINT('Origin',(0.,0.,56.));
#488=CARTESIAN_POINT('Origin',(-7.15914333795137,-12.4,0.));
#489=CARTESIAN_POINT('',(-7.15914333795137,-12.4,0.));
#490=CARTESIAN_POINT('',(7.15914333795135,-12.4,0.));
#491=CARTESIAN_POINT('',(-7.15914333795137,-12.4,0.));
#492=CARTESIAN_POINT('',(7.15914333795135,-12.4,5.));
#493=CARTESIAN_POINT('',(7.15914333795135,-12.4,0.));
#494=CARTESIAN_POINT('',(-7.15914333795137,-12.4,5.));
#495=CARTESIAN_POINT('',(-7.15914333795137,-12.4,5.));
#496=CARTESIAN_POINT('',(-7.15914333795137,-12.4,0.));
#497=CARTESIAN_POINT('Origin',(-14.3182866759027,2.55004350968591E-15,0.));
#498=CARTESIAN_POINT('',(-14.3182866759027,2.55004350968591E-15,0.));
#499=CARTESIAN_POINT('',(-14.3182866759027,2.55004350968591E-15,0.));
#500=CARTESIAN_POINT('',(-14.3182866759027,2.55004350968591E-15,5.));
#501=CARTESIAN_POINT('',(-14.3182866759027,2.55004350968591E-15,5.));
#502=CARTESIAN_POINT('',(-14.3182866759027,2.55004350968591E-15,0.));
#503=CARTESIAN_POINT('Origin',(-7.15914333795136,12.4,0.));
#504=CARTESIAN_POINT('',(-7.15914333795136,12.4,0.));
#505=CARTESIAN_POINT('',(-7.15914333795136,12.4,0.));
#506=CARTESIAN_POINT('',(-7.15914333795136,12.4,5.));
#507=CARTESIAN_POINT('',(-7.15914333795136,12.4,5.));
#508=CARTESIAN_POINT('',(-7.15914333795136,12.4,0.));
#509=CARTESIAN_POINT('Origin',(7.15914333795137,12.4,0.));
#510=CARTESIAN_POINT('',(7.15914333795137,12.4,0.));
#511=CARTESIAN_POINT('',(7.15914333795137,12.4,0.));
#512=CARTESIAN_POINT('',(7.15914333795137,12.4,5.));
#513=CARTESIAN_POINT('',(7.15914333795137,12.4,5.));
#514=CARTESIAN_POINT('',(7.15914333795137,12.4,0.));
#515=CARTESIAN_POINT('Origin',(14.3182866759027,-2.38524477946811E-16,0.));
#516=CARTESIAN_POINT('',(14.3182866759027,0.,0.));
#517=CARTESIAN_POINT('',(14.3182866759027,-9.54097911787244E-16,0.));
#518=CARTESIAN_POINT('',(14.3182866759027,0.,5.));
#519=CARTESIAN_POINT('',(14.3182866759027,-9.54097911787244E-16,5.));
#520=CARTESIAN_POINT('',(14.3182866759027,0.,0.));
#521=CARTESIAN_POINT('Origin',(7.15914333795135,-12.4,0.));
#522=CARTESIAN_POINT('',(7.15914333795135,-12.4,0.));
#523=CARTESIAN_POINT('',(7.15914333795135,-12.4,5.));
#524=CARTESIAN_POINT('Origin',(0.,2.22044604925031E-15,5.));
#525=CARTESIAN_POINT('Origin',(0.,2.22044604925031E-15,0.));
#526=UNCERTAINTY_MEASURE_WITH_UNIT(LENGTH_MEASURE(0.01),#530,
'DISTANCE_ACCURACY_VALUE',
'Maximum model space distance between geometric entities at asserted c
onnectivities');
#527=UNCERTAINTY_MEASURE_WITH_UNIT(LENGTH_MEASURE(0.01),#530,
'DISTANCE_ACCURACY_VALUE',
'Maximum model space distance between geometric entities at asserted c
onnectivities');
#528=(
GEOMETRIC_REPRESENTATION_CONTEXT(3)
GLOBAL_UNCERTAINTY_ASSIGNED_CONTEXT((#526))
GLOBAL_UNIT_ASSIGNED_CONTEXT((#530,#532,#533))
REPRESENTATION_CONTEXT('','3D')
);
#529=(
GEOMETRIC_REPRESENTATION_CONTEXT(3)
GLOBAL_UNCERTAINTY_ASSIGNED_CONTEXT((#527))
GLOBAL_UNIT_ASSIGNED_CONTEXT((#530,#532,#533))
REPRESENTATION_CONTEXT('','3D')
);
#530=(
LENGTH_UNIT()
NAMED_UNIT(*)
SI_UNIT(.MILLI.,.METRE.)
);
#531=(
LENGTH_UNIT()
NAMED_UNIT(*)
SI_UNIT($,.METRE.)
);
#532=(
NAMED_UNIT(*)
PLANE_ANGLE_UNIT()
SI_UNIT($,.RADIAN.)
);
#533=(
NAMED_UNIT(*)
SI_UNIT($,.STERADIAN.)
SOLID_ANGLE_UNIT()
);
#534=SHAPE_DEFINITION_REPRESENTATION(#535,#536);
#535=PRODUCT_DEFINITION_SHAPE('',$,#538);
#536=SHAPE_REPRESENTATION('',(#323),#528);
#537=PRODUCT_DEFINITION_CONTEXT('part definition',#542,'design');
#538=PRODUCT_DEFINITION('Supp Core','Supp Core v1',#539,#537);
#539=PRODUCT_DEFINITION_FORMATION('',$,#544);
#540=PRODUCT_RELATED_PRODUCT_CATEGORY('Supp Core v1','Supp Core v1',(#544));
#541=APPLICATION_PROTOCOL_DEFINITION('international standard',
'automotive_design',2009,#542);
#542=APPLICATION_CONTEXT(
'Core Data for Automotive Mechanical Design Process');
#543=PRODUCT_CONTEXT('part definition',#542,'mechanical');
#544=PRODUCT('Supp Core','Supp Core v1',$,(#543));
#545=PRESENTATION_STYLE_ASSIGNMENT((#546));
#546=SURFACE_STYLE_USAGE(.BOTH.,#547);
#547=SURFACE_SIDE_STYLE('',(#548));
#548=SURFACE_STYLE_FILL_AREA(#549);
#549=FILL_AREA_STYLE('Acier - Satin\X\E9',(#550));
#550=FILL_AREA_STYLE_COLOUR('Acier - Satin\X\E9',#551);
#551=COLOUR_RGB('Acier - Satin\X\E9',0.627450980392157,0.627450980392157,
0.627450980392157);
ENDSEC;
END-ISO-10303-21;
