ISO-10303-21;
HEADER;
/* Generated by software containing ST-Developer
 * from STEP Tools, Inc. (www.steptools.com) 
 */

FILE_DESCRIPTION(
/* description */ (''),
/* implementation_level */ '2;1');

FILE_NAME(
/* name */ 'Component7.step',
/* time_stamp */ '2024-10-02T21:12:21+02:00',
/* author */ (''),
/* organization */ (''),
/* preprocessor_version */ 'ST-DEVELOPER v20',
/* originating_system */ 'Autodesk Translation Framework v13.20.0.188',

/* authorisation */ '');

FILE_SCHEMA (('AUTOMOTIVE_DESIGN { 1 0 10303 214 3 1 1 }'));
ENDSEC;

DATA;
#10=MECHANICAL_DESIGN_GEOMETRIC_PRESENTATION_REPRESENTATION('',(#13),#544);
#11=SHAPE_REPRESENTATION_RELATIONSHIP('SRR','None',#551,#12);
#12=ADVANCED_BREP_SHAPE_REPRESENTATION('',(#14),#543);
#13=STYLED_ITEM('',(#560),#14);
#14=MANIFOLD_SOLID_BREP('Body1',#316);
#15=CYLINDRICAL_SURFACE('',#350,3.1);
#16=CYLINDRICAL_SURFACE('',#352,3.1);
#17=CYLINDRICAL_SURFACE('',#354,3.10000000000001);
#18=CYLINDRICAL_SURFACE('',#356,3.10000000000001);
#19=CYLINDRICAL_SURFACE('',#358,3.1);
#20=FACE_BOUND('',#64,.T.);
#21=FACE_BOUND('',#65,.T.);
#22=FACE_BOUND('',#66,.T.);
#23=FACE_BOUND('',#73,.T.);
#24=FACE_BOUND('',#74,.T.);
#25=FACE_BOUND('',#75,.T.);
#26=CIRCLE('',#345,3.1);
#27=CIRCLE('',#346,3.1);
#28=CIRCLE('',#347,3.10000000000001);
#29=CIRCLE('',#348,3.10000000000001);
#30=CIRCLE('',#349,3.1);
#31=CIRCLE('',#351,3.1);
#32=CIRCLE('',#353,3.1);
#33=CIRCLE('',#355,3.10000000000001);
#34=CIRCLE('',#357,3.10000000000001);
#35=CIRCLE('',#359,3.1);
#36=ELLIPSE('',#332,3.15545892066431,3.1);
#37=ELLIPSE('',#333,3.15545892066431,3.1);
#38=ELLIPSE('',#334,3.15545892066431,3.1);
#39=ELLIPSE('',#335,3.15545892066431,3.1);
#40=ELLIPSE('',#339,3.15545892066431,3.1);
#41=ELLIPSE('',#340,3.15545892066431,3.1);
#42=ELLIPSE('',#341,3.15545892066431,3.1);
#43=ELLIPSE('',#342,3.15545892066431,3.1);
#44=FACE_OUTER_BOUND('',#57,.T.);
#45=FACE_OUTER_BOUND('',#58,.T.);
#46=FACE_OUTER_BOUND('',#59,.T.);
#47=FACE_OUTER_BOUND('',#60,.T.);
#48=FACE_OUTER_BOUND('',#61,.T.);
#49=FACE_OUTER_BOUND('',#62,.T.);
#50=FACE_OUTER_BOUND('',#63,.T.);
#51=FACE_OUTER_BOUND('',#67,.T.);
#52=FACE_OUTER_BOUND('',#68,.T.);
#53=FACE_OUTER_BOUND('',#69,.T.);
#54=FACE_OUTER_BOUND('',#70,.T.);
#55=FACE_OUTER_BOUND('',#71,.T.);
#56=FACE_OUTER_BOUND('',#72,.T.);
#57=EDGE_LOOP('',(#205,#206,#207,#208,#209,#210));
#58=EDGE_LOOP('',(#211,#212,#213,#214,#215,#216,#217,#218,#219,#220));
#59=EDGE_LOOP('',(#221,#222,#223,#224));
#60=EDGE_LOOP('',(#225,#226,#227,#228,#229,#230));
#61=EDGE_LOOP('',(#231,#232,#233,#234,#235,#236,#237,#238,#239,#240));
#62=EDGE_LOOP('',(#241,#242,#243,#244));
#63=EDGE_LOOP('',(#245,#246,#247,#248,#249,#250,#251,#252));
#64=EDGE_LOOP('',(#253));
#65=EDGE_LOOP('',(#254));
#66=EDGE_LOOP('',(#255));
#67=EDGE_LOOP('',(#256,#257,#258,#259,#260,#261,#262,#263));
#68=EDGE_LOOP('',(#264,#265,#266,#267,#268,#269,#270,#271));
#69=EDGE_LOOP('',(#272,#273,#274,#275));
#70=EDGE_LOOP('',(#276,#277,#278,#279));
#71=EDGE_LOOP('',(#280,#281,#282,#283));
#72=EDGE_LOOP('',(#284,#285,#286,#287,#288,#289,#290,#291));
#73=EDGE_LOOP('',(#292));
#74=EDGE_LOOP('',(#293));
#75=EDGE_LOOP('',(#294));
#76=LINE('',#456,#103);
#77=LINE('',#458,#104);
#78=LINE('',#460,#105);
#79=LINE('',#462,#106);
#80=LINE('',#464,#107);
#81=LINE('',#465,#108);
#82=LINE('',#468,#109);
#83=LINE('',#470,#110);
#84=LINE('',#472,#111);
#85=LINE('',#478,#112);
#86=LINE('',#483,#113);
#87=LINE('',#486,#114);
#88=LINE('',#487,#115);
#89=LINE('',#490,#116);
#90=LINE('',#492,#117);
#91=LINE('',#494,#118);
#92=LINE('',#495,#119);
#93=LINE('',#498,#120);
#94=LINE('',#504,#121);
#95=LINE('',#509,#122);
#96=LINE('',#511,#123);
#97=LINE('',#512,#124);
#98=LINE('',#523,#125);
#99=LINE('',#526,#126);
#100=LINE('',#530,#127);
#101=LINE('',#534,#128);
#102=LINE('',#538,#129);
#103=VECTOR('',#365,10.);
#104=VECTOR('',#366,10.);
#105=VECTOR('',#367,10.);
#106=VECTOR('',#368,10.);
#107=VECTOR('',#369,10.);
#108=VECTOR('',#370,10.);
#109=VECTOR('',#373,10.);
#110=VECTOR('',#374,10.);
#111=VECTOR('',#375,10.);
#112=VECTOR('',#380,10.);
#113=VECTOR('',#385,10.);
#114=VECTOR('',#388,10.);
#115=VECTOR('',#389,10.);
#116=VECTOR('',#392,10.);
#117=VECTOR('',#393,10.);
#118=VECTOR('',#394,10.);
#119=VECTOR('',#395,10.);
#120=VECTOR('',#398,10.);
#121=VECTOR('',#403,10.);
#122=VECTOR('',#408,10.);
#123=VECTOR('',#411,10.);
#124=VECTOR('',#412,10.);
#125=VECTOR('',#427,3.1);
#126=VECTOR('',#432,3.1);
#127=VECTOR('',#437,3.10000000000001);
#128=VECTOR('',#442,3.10000000000001);
#129=VECTOR('',#447,3.1);
#130=VERTEX_POINT('',#454);
#131=VERTEX_POINT('',#455);
#132=VERTEX_POINT('',#457);
#133=VERTEX_POINT('',#459);
#134=VERTEX_POINT('',#461);
#135=VERTEX_POINT('',#463);
#136=VERTEX_POINT('',#467);
#137=VERTEX_POINT('',#469);
#138=VERTEX_POINT('',#471);
#139=VERTEX_POINT('',#473);
#140=VERTEX_POINT('',#475);
#141=VERTEX_POINT('',#477);
#142=VERTEX_POINT('',#479);
#143=VERTEX_POINT('',#481);
#144=VERTEX_POINT('',#485);
#145=VERTEX_POINT('',#489);
#146=VERTEX_POINT('',#491);
#147=VERTEX_POINT('',#493);
#148=VERTEX_POINT('',#497);
#149=VERTEX_POINT('',#499);
#150=VERTEX_POINT('',#501);
#151=VERTEX_POINT('',#503);
#152=VERTEX_POINT('',#505);
#153=VERTEX_POINT('',#507);
#154=VERTEX_POINT('',#516);
#155=VERTEX_POINT('',#518);
#156=VERTEX_POINT('',#520);
#157=VERTEX_POINT('',#529);
#158=VERTEX_POINT('',#533);
#159=VERTEX_POINT('',#537);
#160=EDGE_CURVE('',#130,#131,#76,.T.);
#161=EDGE_CURVE('',#132,#130,#77,.T.);
#162=EDGE_CURVE('',#133,#132,#78,.T.);
#163=EDGE_CURVE('',#133,#134,#79,.T.);
#164=EDGE_CURVE('',#134,#135,#80,.T.);
#165=EDGE_CURVE('',#131,#135,#81,.T.);
#166=EDGE_CURVE('',#130,#136,#82,.T.);
#167=EDGE_CURVE('',#136,#137,#83,.T.);
#168=EDGE_CURVE('',#137,#138,#84,.T.);
#169=EDGE_CURVE('',#138,#139,#36,.T.);
#170=EDGE_CURVE('',#139,#140,#37,.T.);
#171=EDGE_CURVE('',#140,#141,#85,.T.);
#172=EDGE_CURVE('',#141,#142,#38,.T.);
#173=EDGE_CURVE('',#142,#143,#39,.T.);
#174=EDGE_CURVE('',#143,#132,#86,.T.);
#175=EDGE_CURVE('',#144,#131,#87,.T.);
#176=EDGE_CURVE('',#144,#136,#88,.T.);
#177=EDGE_CURVE('',#145,#144,#89,.T.);
#178=EDGE_CURVE('',#146,#145,#90,.T.);
#179=EDGE_CURVE('',#147,#146,#91,.T.);
#180=EDGE_CURVE('',#147,#137,#92,.T.);
#181=EDGE_CURVE('',#135,#148,#93,.T.);
#182=EDGE_CURVE('',#148,#149,#40,.T.);
#183=EDGE_CURVE('',#149,#150,#41,.T.);
#184=EDGE_CURVE('',#150,#151,#94,.T.);
#185=EDGE_CURVE('',#151,#152,#42,.T.);
#186=EDGE_CURVE('',#152,#153,#43,.T.);
#187=EDGE_CURVE('',#153,#145,#95,.T.);
#188=EDGE_CURVE('',#133,#147,#96,.T.);
#189=EDGE_CURVE('',#146,#134,#97,.T.);
#190=EDGE_CURVE('',#143,#141,#26,.T.);
#191=EDGE_CURVE('',#138,#140,#27,.T.);
#192=EDGE_CURVE('',#154,#154,#28,.T.);
#193=EDGE_CURVE('',#155,#155,#29,.T.);
#194=EDGE_CURVE('',#156,#156,#30,.T.);
#195=EDGE_CURVE('',#139,#152,#98,.T.);
#196=EDGE_CURVE('',#153,#151,#31,.T.);
#197=EDGE_CURVE('',#142,#149,#99,.T.);
#198=EDGE_CURVE('',#148,#150,#32,.T.);
#199=EDGE_CURVE('',#155,#157,#100,.T.);
#200=EDGE_CURVE('',#157,#157,#33,.T.);
#201=EDGE_CURVE('',#154,#158,#101,.T.);
#202=EDGE_CURVE('',#158,#158,#34,.T.);
#203=EDGE_CURVE('',#156,#159,#102,.T.);
#204=EDGE_CURVE('',#159,#159,#35,.T.);
#205=ORIENTED_EDGE('',*,*,#160,.F.);
#206=ORIENTED_EDGE('',*,*,#161,.F.);
#207=ORIENTED_EDGE('',*,*,#162,.F.);
#208=ORIENTED_EDGE('',*,*,#163,.T.);
#209=ORIENTED_EDGE('',*,*,#164,.T.);
#210=ORIENTED_EDGE('',*,*,#165,.F.);
#211=ORIENTED_EDGE('',*,*,#161,.T.);
#212=ORIENTED_EDGE('',*,*,#166,.T.);
#213=ORIENTED_EDGE('',*,*,#167,.T.);
#214=ORIENTED_EDGE('',*,*,#168,.T.);
#215=ORIENTED_EDGE('',*,*,#169,.T.);
#216=ORIENTED_EDGE('',*,*,#170,.T.);
#217=ORIENTED_EDGE('',*,*,#171,.T.);
#218=ORIENTED_EDGE('',*,*,#172,.T.);
#219=ORIENTED_EDGE('',*,*,#173,.T.);
#220=ORIENTED_EDGE('',*,*,#174,.T.);
#221=ORIENTED_EDGE('',*,*,#160,.T.);
#222=ORIENTED_EDGE('',*,*,#175,.F.);
#223=ORIENTED_EDGE('',*,*,#176,.T.);
#224=ORIENTED_EDGE('',*,*,#166,.F.);
#225=ORIENTED_EDGE('',*,*,#176,.F.);
#226=ORIENTED_EDGE('',*,*,#177,.F.);
#227=ORIENTED_EDGE('',*,*,#178,.F.);
#228=ORIENTED_EDGE('',*,*,#179,.F.);
#229=ORIENTED_EDGE('',*,*,#180,.T.);
#230=ORIENTED_EDGE('',*,*,#167,.F.);
#231=ORIENTED_EDGE('',*,*,#165,.T.);
#232=ORIENTED_EDGE('',*,*,#181,.T.);
#233=ORIENTED_EDGE('',*,*,#182,.T.);
#234=ORIENTED_EDGE('',*,*,#183,.T.);
#235=ORIENTED_EDGE('',*,*,#184,.T.);
#236=ORIENTED_EDGE('',*,*,#185,.T.);
#237=ORIENTED_EDGE('',*,*,#186,.T.);
#238=ORIENTED_EDGE('',*,*,#187,.T.);
#239=ORIENTED_EDGE('',*,*,#177,.T.);
#240=ORIENTED_EDGE('',*,*,#175,.T.);
#241=ORIENTED_EDGE('',*,*,#163,.F.);
#242=ORIENTED_EDGE('',*,*,#188,.T.);
#243=ORIENTED_EDGE('',*,*,#179,.T.);
#244=ORIENTED_EDGE('',*,*,#189,.T.);
#245=ORIENTED_EDGE('',*,*,#188,.F.);
#246=ORIENTED_EDGE('',*,*,#162,.T.);
#247=ORIENTED_EDGE('',*,*,#174,.F.);
#248=ORIENTED_EDGE('',*,*,#190,.T.);
#249=ORIENTED_EDGE('',*,*,#171,.F.);
#250=ORIENTED_EDGE('',*,*,#191,.F.);
#251=ORIENTED_EDGE('',*,*,#168,.F.);
#252=ORIENTED_EDGE('',*,*,#180,.F.);
#253=ORIENTED_EDGE('',*,*,#192,.T.);
#254=ORIENTED_EDGE('',*,*,#193,.F.);
#255=ORIENTED_EDGE('',*,*,#194,.F.);
#256=ORIENTED_EDGE('',*,*,#169,.F.);
#257=ORIENTED_EDGE('',*,*,#191,.T.);
#258=ORIENTED_EDGE('',*,*,#170,.F.);
#259=ORIENTED_EDGE('',*,*,#195,.T.);
#260=ORIENTED_EDGE('',*,*,#185,.F.);
#261=ORIENTED_EDGE('',*,*,#196,.F.);
#262=ORIENTED_EDGE('',*,*,#186,.F.);
#263=ORIENTED_EDGE('',*,*,#195,.F.);
#264=ORIENTED_EDGE('',*,*,#172,.F.);
#265=ORIENTED_EDGE('',*,*,#190,.F.);
#266=ORIENTED_EDGE('',*,*,#173,.F.);
#267=ORIENTED_EDGE('',*,*,#197,.T.);
#268=ORIENTED_EDGE('',*,*,#182,.F.);
#269=ORIENTED_EDGE('',*,*,#198,.T.);
#270=ORIENTED_EDGE('',*,*,#183,.F.);
#271=ORIENTED_EDGE('',*,*,#197,.F.);
#272=ORIENTED_EDGE('',*,*,#193,.T.);
#273=ORIENTED_EDGE('',*,*,#199,.T.);
#274=ORIENTED_EDGE('',*,*,#200,.F.);
#275=ORIENTED_EDGE('',*,*,#199,.F.);
#276=ORIENTED_EDGE('',*,*,#192,.F.);
#277=ORIENTED_EDGE('',*,*,#201,.T.);
#278=ORIENTED_EDGE('',*,*,#202,.T.);
#279=ORIENTED_EDGE('',*,*,#201,.F.);
#280=ORIENTED_EDGE('',*,*,#194,.T.);
#281=ORIENTED_EDGE('',*,*,#203,.T.);
#282=ORIENTED_EDGE('',*,*,#204,.T.);
#283=ORIENTED_EDGE('',*,*,#203,.F.);
#284=ORIENTED_EDGE('',*,*,#189,.F.);
#285=ORIENTED_EDGE('',*,*,#178,.T.);
#286=ORIENTED_EDGE('',*,*,#187,.F.);
#287=ORIENTED_EDGE('',*,*,#196,.T.);
#288=ORIENTED_EDGE('',*,*,#184,.F.);
#289=ORIENTED_EDGE('',*,*,#198,.F.);
#290=ORIENTED_EDGE('',*,*,#181,.F.);
#291=ORIENTED_EDGE('',*,*,#164,.F.);
#292=ORIENTED_EDGE('',*,*,#204,.F.);
#293=ORIENTED_EDGE('',*,*,#200,.T.);
#294=ORIENTED_EDGE('',*,*,#202,.F.);
#295=PLANE('',#330);
#296=PLANE('',#331);
#297=PLANE('',#336);
#298=PLANE('',#337);
#299=PLANE('',#338);
#300=PLANE('',#343);
#301=PLANE('',#344);
#302=PLANE('',#360);
#303=ADVANCED_FACE('',(#44),#295,.T.);
#304=ADVANCED_FACE('',(#45),#296,.T.);
#305=ADVANCED_FACE('',(#46),#297,.T.);
#306=ADVANCED_FACE('',(#47),#298,.F.);
#307=ADVANCED_FACE('',(#48),#299,.T.);
#308=ADVANCED_FACE('',(#49),#300,.T.);
#309=ADVANCED_FACE('',(#50,#20,#21,#22),#301,.T.);
#310=ADVANCED_FACE('',(#51),#15,.F.);
#311=ADVANCED_FACE('',(#52),#16,.F.);
#312=ADVANCED_FACE('',(#53),#17,.F.);
#313=ADVANCED_FACE('',(#54),#18,.F.);
#314=ADVANCED_FACE('',(#55),#19,.F.);
#315=ADVANCED_FACE('',(#56,#23,#24,#25),#302,.F.);
#316=CLOSED_SHELL('',(#303,#304,#305,#306,#307,#308,#309,#310,#311,#312,
#313,#314,#315));
#317=DERIVED_UNIT_ELEMENT(#319,1.);
#318=DERIVED_UNIT_ELEMENT(#546,-3.);
#319=(
MASS_UNIT()
NAMED_UNIT(*)
SI_UNIT(.KILO.,.GRAM.)
);
#320=DERIVED_UNIT((#317,#318));
#321=MEASURE_REPRESENTATION_ITEM('density measure',
POSITIVE_RATIO_MEASURE(1290.),#320);
#322=PROPERTY_DEFINITION_REPRESENTATION(#327,#324);
#323=PROPERTY_DEFINITION_REPRESENTATION(#328,#325);
#324=REPRESENTATION('material name',(#326),#543);
#325=REPRESENTATION('density',(#321),#543);
#326=DESCRIPTIVE_REPRESENTATION_ITEM('Plastic','Plastic');
#327=PROPERTY_DEFINITION('material property','material name',#553);
#328=PROPERTY_DEFINITION('material property','density of part',#553);
#329=AXIS2_PLACEMENT_3D('',#452,#361,#362);
#330=AXIS2_PLACEMENT_3D('',#453,#363,#364);
#331=AXIS2_PLACEMENT_3D('',#466,#371,#372);
#332=AXIS2_PLACEMENT_3D('',#474,#376,#377);
#333=AXIS2_PLACEMENT_3D('',#476,#378,#379);
#334=AXIS2_PLACEMENT_3D('',#480,#381,#382);
#335=AXIS2_PLACEMENT_3D('',#482,#383,#384);
#336=AXIS2_PLACEMENT_3D('',#484,#386,#387);
#337=AXIS2_PLACEMENT_3D('',#488,#390,#391);
#338=AXIS2_PLACEMENT_3D('',#496,#396,#397);
#339=AXIS2_PLACEMENT_3D('',#500,#399,#400);
#340=AXIS2_PLACEMENT_3D('',#502,#401,#402);
#341=AXIS2_PLACEMENT_3D('',#506,#404,#405);
#342=AXIS2_PLACEMENT_3D('',#508,#406,#407);
#343=AXIS2_PLACEMENT_3D('',#510,#409,#410);
#344=AXIS2_PLACEMENT_3D('',#513,#413,#414);
#345=AXIS2_PLACEMENT_3D('',#514,#415,#416);
#346=AXIS2_PLACEMENT_3D('',#515,#417,#418);
#347=AXIS2_PLACEMENT_3D('',#517,#419,#420);
#348=AXIS2_PLACEMENT_3D('',#519,#421,#422);
#349=AXIS2_PLACEMENT_3D('',#521,#423,#424);
#350=AXIS2_PLACEMENT_3D('',#522,#425,#426);
#351=AXIS2_PLACEMENT_3D('',#524,#428,#429);
#352=AXIS2_PLACEMENT_3D('',#525,#430,#431);
#353=AXIS2_PLACEMENT_3D('',#527,#433,#434);
#354=AXIS2_PLACEMENT_3D('',#528,#435,#436);
#355=AXIS2_PLACEMENT_3D('',#531,#438,#439);
#356=AXIS2_PLACEMENT_3D('',#532,#440,#441);
#357=AXIS2_PLACEMENT_3D('',#535,#443,#444);
#358=AXIS2_PLACEMENT_3D('',#536,#445,#446);
#359=AXIS2_PLACEMENT_3D('',#539,#448,#449);
#360=AXIS2_PLACEMENT_3D('',#540,#450,#451);
#361=DIRECTION('axis',(0.,0.,1.));
#362=DIRECTION('refdir',(1.,0.,0.));
#363=DIRECTION('center_axis',(0.,-1.,0.));
#364=DIRECTION('ref_axis',(0.,0.,-1.));
#365=DIRECTION('',(-1.,0.,0.));
#366=DIRECTION('',(-0.18666064582327,0.,-0.982424451701422));
#367=DIRECTION('',(0.,0.,-1.));
#368=DIRECTION('',(-1.,0.,0.));
#369=DIRECTION('',(0.,0.,-1.));
#370=DIRECTION('',(-0.18666064582327,0.,0.982424451701422));
#371=DIRECTION('center_axis',(0.982424451701422,0.,-0.18666064582327));
#372=DIRECTION('ref_axis',(-0.18666064582327,0.,-0.982424451701422));
#373=DIRECTION('',(0.,1.,0.));
#374=DIRECTION('',(0.18666064582327,0.,0.982424451701422));
#375=DIRECTION('',(0.,-1.,0.));
#376=DIRECTION('center_axis',(-0.982424451701422,0.,0.18666064582327));
#377=DIRECTION('ref_axis',(0.18666064582327,0.,0.982424451701422));
#378=DIRECTION('center_axis',(-0.982424451701422,0.,0.18666064582327));
#379=DIRECTION('ref_axis',(0.18666064582327,0.,0.982424451701422));
#380=DIRECTION('',(0.,-1.,0.));
#381=DIRECTION('center_axis',(-0.982424451701422,0.,0.18666064582327));
#382=DIRECTION('ref_axis',(0.18666064582327,0.,0.982424451701422));
#383=DIRECTION('center_axis',(-0.982424451701422,0.,0.18666064582327));
#384=DIRECTION('ref_axis',(0.18666064582327,0.,0.982424451701422));
#385=DIRECTION('',(0.,-1.,0.));
#386=DIRECTION('center_axis',(0.,0.,-1.));
#387=DIRECTION('ref_axis',(-1.,0.,0.));
#388=DIRECTION('',(0.,-1.,0.));
#389=DIRECTION('',(1.,0.,0.));
#390=DIRECTION('center_axis',(0.,-1.,0.));
#391=DIRECTION('ref_axis',(0.,0.,-1.));
#392=DIRECTION('',(0.18666064582327,0.,-0.982424451701422));
#393=DIRECTION('',(0.,0.,-1.));
#394=DIRECTION('',(-1.,0.,0.));
#395=DIRECTION('',(0.,0.,-1.));
#396=DIRECTION('center_axis',(-0.982424451701422,0.,-0.18666064582327));
#397=DIRECTION('ref_axis',(-0.18666064582327,0.,0.982424451701422));
#398=DIRECTION('',(0.,1.,0.));
#399=DIRECTION('center_axis',(0.982424451701422,0.,0.18666064582327));
#400=DIRECTION('ref_axis',(-0.18666064582327,0.,0.982424451701422));
#401=DIRECTION('center_axis',(0.982424451701422,0.,0.18666064582327));
#402=DIRECTION('ref_axis',(-0.18666064582327,0.,0.982424451701422));
#403=DIRECTION('',(0.,1.,0.));
#404=DIRECTION('center_axis',(0.982424451701422,0.,0.18666064582327));
#405=DIRECTION('ref_axis',(-0.18666064582327,0.,0.982424451701422));
#406=DIRECTION('center_axis',(0.982424451701422,0.,0.18666064582327));
#407=DIRECTION('ref_axis',(-0.18666064582327,0.,0.982424451701422));
#408=DIRECTION('',(0.,1.,0.));
#409=DIRECTION('center_axis',(0.,0.,1.));
#410=DIRECTION('ref_axis',(0.,-1.,0.));
#411=DIRECTION('',(0.,1.,0.));
#412=DIRECTION('',(0.,-1.,0.));
#413=DIRECTION('center_axis',(1.,0.,0.));
#414=DIRECTION('ref_axis',(0.,1.,0.));
#415=DIRECTION('center_axis',(-1.,0.,0.));
#416=DIRECTION('ref_axis',(0.,1.,0.));
#417=DIRECTION('center_axis',(1.,0.,0.));
#418=DIRECTION('ref_axis',(0.,-1.,0.));
#419=DIRECTION('center_axis',(-1.,0.,0.));
#420=DIRECTION('ref_axis',(0.,1.,0.));
#421=DIRECTION('center_axis',(1.,0.,0.));
#422=DIRECTION('ref_axis',(0.,-1.,0.));
#423=DIRECTION('center_axis',(1.,0.,0.));
#424=DIRECTION('ref_axis',(0.,-1.,0.));
#425=DIRECTION('center_axis',(-1.,0.,0.));
#426=DIRECTION('ref_axis',(0.,-1.,0.));
#427=DIRECTION('',(-1.,0.,0.));
#428=DIRECTION('center_axis',(1.,0.,0.));
#429=DIRECTION('ref_axis',(0.,-1.,0.));
#430=DIRECTION('center_axis',(1.,0.,0.));
#431=DIRECTION('ref_axis',(0.,1.,0.));
#432=DIRECTION('',(-1.,0.,0.));
#433=DIRECTION('center_axis',(-1.,0.,0.));
#434=DIRECTION('ref_axis',(0.,1.,0.));
#435=DIRECTION('center_axis',(-1.,0.,0.));
#436=DIRECTION('ref_axis',(0.,-1.,0.));
#437=DIRECTION('',(-1.,0.,0.));
#438=DIRECTION('center_axis',(1.,0.,0.));
#439=DIRECTION('ref_axis',(0.,-1.,0.));
#440=DIRECTION('center_axis',(1.,0.,0.));
#441=DIRECTION('ref_axis',(0.,1.,0.));
#442=DIRECTION('',(-1.,0.,0.));
#443=DIRECTION('center_axis',(-1.,0.,0.));
#444=DIRECTION('ref_axis',(0.,1.,0.));
#445=DIRECTION('center_axis',(1.,0.,0.));
#446=DIRECTION('ref_axis',(0.,1.,0.));
#447=DIRECTION('',(-1.,0.,0.));
#448=DIRECTION('center_axis',(-1.,0.,0.));
#449=DIRECTION('ref_axis',(0.,-1.,0.));
#450=DIRECTION('center_axis',(1.,0.,0.));
#451=DIRECTION('ref_axis',(0.,1.,0.));
#452=CARTESIAN_POINT('',(0.,0.,0.));
#453=CARTESIAN_POINT('Origin',(0.,-260.,101.4));
#454=CARTESIAN_POINT('',(1.05,-260.,-0.1));
#455=CARTESIAN_POINT('',(0.95,-260.,-0.0999999999999998));
#456=CARTESIAN_POINT('',(0.5,-260.,-0.0999999999999979));
#457=CARTESIAN_POINT('',(2.,-260.,4.9));
#458=CARTESIAN_POINT('',(10.5757419650613,-260.,50.0354840266384));
#459=CARTESIAN_POINT('',(2.,-260.,102.8));
#460=CARTESIAN_POINT('',(2.,-260.,102.8));
#461=CARTESIAN_POINT('',(0.,-260.,102.8));
#462=CARTESIAN_POINT('',(0.,-260.,102.8));
#463=CARTESIAN_POINT('',(0.,-260.,4.9));
#464=CARTESIAN_POINT('',(0.,-260.,102.8));
#465=CARTESIAN_POINT('',(-8.61058416176044,-260.,50.2188640092655));
#466=CARTESIAN_POINT('Origin',(1.525,-199.85,2.4));
#467=CARTESIAN_POINT('',(1.05,-99.6,-0.0999999999999998));
#468=CARTESIAN_POINT('',(1.05,-199.85,-0.1));
#469=CARTESIAN_POINT('',(2.,-99.6,4.9));
#470=CARTESIAN_POINT('',(10.5757419650613,-99.6,50.0354840266384));
#471=CARTESIAN_POINT('',(2.,-102.885750544106,4.9));
#472=CARTESIAN_POINT('',(2.,-199.85,4.9));
#473=CARTESIAN_POINT('',(1.753,-102.6,3.6));
#474=CARTESIAN_POINT('Origin',(1.753,-105.7,3.6));
#475=CARTESIAN_POINT('',(2.,-108.514249455894,4.9));
#476=CARTESIAN_POINT('Origin',(1.753,-105.7,3.6));
#477=CARTESIAN_POINT('',(2.,-251.085750544106,4.9));
#478=CARTESIAN_POINT('',(2.,-199.85,4.9));
#479=CARTESIAN_POINT('',(1.753,-257.,3.6));
#480=CARTESIAN_POINT('Origin',(1.753,-253.9,3.6));
#481=CARTESIAN_POINT('',(2.,-256.714249455894,4.9));
#482=CARTESIAN_POINT('Origin',(1.753,-253.9,3.6));
#483=CARTESIAN_POINT('',(2.,-199.85,4.9));
#484=CARTESIAN_POINT('Origin',(1.,-179.8,-0.1));
#485=CARTESIAN_POINT('',(0.95,-99.6,-0.0999999999999998));
#486=CARTESIAN_POINT('',(0.95,-199.85,-0.1));
#487=CARTESIAN_POINT('',(0.5,-99.6,-0.0999999999999979));
#488=CARTESIAN_POINT('Origin',(0.,-99.6,101.4));
#489=CARTESIAN_POINT('',(0.,-99.6,4.9));
#490=CARTESIAN_POINT('',(-8.61058416176044,-99.6,50.2188640092655));
#491=CARTESIAN_POINT('',(0.,-99.6,102.8));
#492=CARTESIAN_POINT('',(0.,-99.6,102.8));
#493=CARTESIAN_POINT('',(2.,-99.6,102.8));
#494=CARTESIAN_POINT('',(0.,-99.6,102.8));
#495=CARTESIAN_POINT('',(2.,-99.6,102.8));
#496=CARTESIAN_POINT('Origin',(0.475,-199.85,2.4));
#497=CARTESIAN_POINT('',(0.,-256.714249455894,4.9));
#498=CARTESIAN_POINT('',(0.,-199.85,4.9));
#499=CARTESIAN_POINT('',(0.247,-257.,3.6));
#500=CARTESIAN_POINT('Origin',(0.247,-253.9,3.6));
#501=CARTESIAN_POINT('',(0.,-251.085750544106,4.9));
#502=CARTESIAN_POINT('Origin',(0.247,-253.9,3.6));
#503=CARTESIAN_POINT('',(0.,-108.514249455894,4.9));
#504=CARTESIAN_POINT('',(0.,-199.85,4.9));
#505=CARTESIAN_POINT('',(0.247,-102.6,3.6));
#506=CARTESIAN_POINT('Origin',(0.247,-105.7,3.6));
#507=CARTESIAN_POINT('',(0.,-102.885750544106,4.9));
#508=CARTESIAN_POINT('Origin',(0.247,-105.7,3.6));
#509=CARTESIAN_POINT('',(0.,-199.85,4.9));
#510=CARTESIAN_POINT('Origin',(0.,-210.8,102.8));
#511=CARTESIAN_POINT('',(2.,-260.,102.8));
#512=CARTESIAN_POINT('',(0.,-99.6,102.8));
#513=CARTESIAN_POINT('Origin',(2.,-219.9,51.4));
#514=CARTESIAN_POINT('Origin',(2.,-253.9,3.6));
#515=CARTESIAN_POINT('Origin',(2.,-105.7,3.6));
#516=CARTESIAN_POINT('',(2.,-257.8,97.5));
#517=CARTESIAN_POINT('Origin',(2.,-254.7,97.5));
#518=CARTESIAN_POINT('',(2.,-101.8,97.5));
#519=CARTESIAN_POINT('Origin',(2.,-104.9,97.5));
#520=CARTESIAN_POINT('',(2.,-182.9,77.3));
#521=CARTESIAN_POINT('Origin',(2.,-179.8,77.3));
#522=CARTESIAN_POINT('Origin',(0.,-105.7,3.6));
#523=CARTESIAN_POINT('',(0.,-102.6,3.6));
#524=CARTESIAN_POINT('Origin',(0.,-105.7,3.6));
#525=CARTESIAN_POINT('Origin',(0.,-253.9,3.6));
#526=CARTESIAN_POINT('',(0.,-257.,3.6));
#527=CARTESIAN_POINT('Origin',(0.,-253.9,3.6));
#528=CARTESIAN_POINT('Origin',(0.,-104.9,97.5));
#529=CARTESIAN_POINT('',(0.,-101.8,97.5));
#530=CARTESIAN_POINT('',(0.,-101.8,97.5));
#531=CARTESIAN_POINT('Origin',(0.,-104.9,97.5));
#532=CARTESIAN_POINT('Origin',(0.,-254.7,97.5));
#533=CARTESIAN_POINT('',(0.,-257.8,97.5));
#534=CARTESIAN_POINT('',(0.,-257.8,97.5));
#535=CARTESIAN_POINT('Origin',(0.,-254.7,97.5));
#536=CARTESIAN_POINT('Origin',(0.,-179.8,77.3));
#537=CARTESIAN_POINT('',(0.,-182.9,77.3));
#538=CARTESIAN_POINT('',(0.,-182.9,77.3));
#539=CARTESIAN_POINT('Origin',(0.,-179.8,77.3));
#540=CARTESIAN_POINT('Origin',(0.,-219.9,51.4));
#541=UNCERTAINTY_MEASURE_WITH_UNIT(LENGTH_MEASURE(0.01),#545,
'DISTANCE_ACCURACY_VALUE',
'Maximum model space distance between geometric entities at asserted c
onnectivities');
#542=UNCERTAINTY_MEASURE_WITH_UNIT(LENGTH_MEASURE(0.01),#545,
'DISTANCE_ACCURACY_VALUE',
'Maximum model space distance between geometric entities at asserted c
onnectivities');
#543=(
GEOMETRIC_REPRESENTATION_CONTEXT(3)
GLOBAL_UNCERTAINTY_ASSIGNED_CONTEXT((#541))
GLOBAL_UNIT_ASSIGNED_CONTEXT((#545,#547,#548))
REPRESENTATION_CONTEXT('','3D')
);
#544=(
GEOMETRIC_REPRESENTATION_CONTEXT(3)
GLOBAL_UNCERTAINTY_ASSIGNED_CONTEXT((#542))
GLOBAL_UNIT_ASSIGNED_CONTEXT((#545,#547,#548))
REPRESENTATION_CONTEXT('','3D')
);
#545=(
LENGTH_UNIT()
NAMED_UNIT(*)
SI_UNIT(.MILLI.,.METRE.)
);
#546=(
LENGTH_UNIT()
NAMED_UNIT(*)
SI_UNIT($,.METRE.)
);
#547=(
NAMED_UNIT(*)
PLANE_ANGLE_UNIT()
SI_UNIT($,.RADIAN.)
);
#548=(
NAMED_UNIT(*)
SI_UNIT($,.STERADIAN.)
SOLID_ANGLE_UNIT()
);
#549=SHAPE_DEFINITION_REPRESENTATION(#550,#551);
#550=PRODUCT_DEFINITION_SHAPE('',$,#553);
#551=SHAPE_REPRESENTATION('',(#329),#543);
#552=PRODUCT_DEFINITION_CONTEXT('part definition',#557,'design');
#553=PRODUCT_DEFINITION('FusionComponent','FusionComponent',#554,#552);
#554=PRODUCT_DEFINITION_FORMATION('',$,#559);
#555=PRODUCT_RELATED_PRODUCT_CATEGORY('FusionComponent',
'FusionComponent',(#559));
#556=APPLICATION_PROTOCOL_DEFINITION('international standard',
'automotive_design',2009,#557);
#557=APPLICATION_CONTEXT(
'Core Data for Automotive Mechanical Design Process');
#558=PRODUCT_CONTEXT('part definition',#557,'mechanical');
#559=PRODUCT('FusionComponent','FusionComponent',$,(#558));
#560=PRESENTATION_STYLE_ASSIGNMENT((#561));
#561=SURFACE_STYLE_USAGE(.BOTH.,#562);
#562=SURFACE_SIDE_STYLE('',(#563));
#563=SURFACE_STYLE_FILL_AREA(#564);
#564=FILL_AREA_STYLE('Plastic - Glossy (Grey)',(#565));
#565=FILL_AREA_STYLE_COLOUR('Plastic - Glossy (Grey)',#566);
#566=COLOUR_RGB('Plastic - Glossy (Grey)',0.701960784313725,0.701960784313725,
0.701960784313725);
ENDSEC;
END-ISO-10303-21;
