ISO-10303-21;
HEADER;
/* Generated by software containing ST-Developer
 * from STEP Tools, Inc. (www.steptools.com) 
 */
/* OPTION: strings as raw bytes, not using required /X/ escapes */

FILE_DESCRIPTION(
/* description */ ('Unknown'),
/* implementation_level */ '2;1');

FILE_NAME(
/* name */ 'tube fourreau',
/* time_stamp */ '2024-11-03T12:04:47+01:00',
/* author */ ('Unknown'),
/* organization */ ('Unknown'),
/* preprocessor_version */ 'ST-DEVELOPER v18.102',
/* originating_system */ 'Solid Edge',
/* authorisation */ 'Unknown');

FILE_SCHEMA (('AUTOMOTIVE_DESIGN {1 0 10303 214 3 1 1}'));
ENDSEC;

DATA;
#10=PROPERTY_DEFINITION_REPRESENTATION(#14,#12);
#11=PROPERTY_DEFINITION_REPRESENTATION(#15,#13);
#12=REPRESENTATION('',(#16),#453);
#13=REPRESENTATION('',(#17),#453);
#14=PROPERTY_DEFINITION('pmi validation property','',#458);
#15=PROPERTY_DEFINITION('pmi validation property','',#458);
#16=VALUE_REPRESENTATION_ITEM('number of annotations',COUNT_MEASURE(0.));
#17=VALUE_REPRESENTATION_ITEM('number of views',COUNT_MEASURE(0.));
#18=SHAPE_REPRESENTATION_RELATIONSHIP('','',#247,#19);
#19=ADVANCED_BREP_SHAPE_REPRESENTATION('',(#245),#453);
#20=TOROIDAL_SURFACE('',#280,35.5,0.5);
#21=TOROIDAL_SURFACE('',#281,35.5,0.5);
#22=CONICAL_SURFACE('',#278,37.,0.785398163397448);
#23=CONICAL_SURFACE('',#279,36.,0.785398163397448);
#24=PLANE('',#258);
#25=PLANE('',#263);
#26=PLANE('',#268);
#27=PLANE('',#273);
#28=PLANE('',#275);
#29=PLANE('',#282);
#30=CIRCLE('',#250,27.5);
#31=CIRCLE('',#251,27.5);
#32=CIRCLE('',#253,43.5);
#33=CIRCLE('',#254,43.5);
#34=CIRCLE('',#256,36.);
#35=CIRCLE('',#257,36.);
#36=CIRCLE('',#259,35.5);
#37=CIRCLE('',#261,40.);
#38=CIRCLE('',#262,40.);
#39=CIRCLE('',#264,37.);
#40=CIRCLE('',#266,36.);
#41=CIRCLE('',#267,36.);
#42=CIRCLE('',#269,35.5);
#43=CIRCLE('',#271,40.);
#44=CIRCLE('',#272,40.);
#45=CIRCLE('',#274,37.);
#46=ORIENTED_EDGE('',*,*,#86,.F.);
#47=ORIENTED_EDGE('',*,*,#87,.F.);
#48=ORIENTED_EDGE('',*,*,#88,.F.);
#49=ORIENTED_EDGE('',*,*,#89,.T.);
#50=ORIENTED_EDGE('',*,*,#90,.T.);
#51=ORIENTED_EDGE('',*,*,#91,.T.);
#52=ORIENTED_EDGE('',*,*,#92,.T.);
#53=ORIENTED_EDGE('',*,*,#93,.T.);
#54=ORIENTED_EDGE('',*,*,#94,.T.);
#55=ORIENTED_EDGE('',*,*,#95,.T.);
#56=ORIENTED_EDGE('',*,*,#96,.T.);
#57=ORIENTED_EDGE('',*,*,#88,.T.);
#58=ORIENTED_EDGE('',*,*,#97,.F.);
#59=ORIENTED_EDGE('',*,*,#98,.T.);
#60=ORIENTED_EDGE('',*,*,#99,.T.);
#61=ORIENTED_EDGE('',*,*,#98,.F.);
#62=ORIENTED_EDGE('',*,*,#100,.T.);
#63=ORIENTED_EDGE('',*,*,#101,.T.);
#64=ORIENTED_EDGE('',*,*,#102,.T.);
#65=ORIENTED_EDGE('',*,*,#89,.F.);
#66=ORIENTED_EDGE('',*,*,#103,.F.);
#67=ORIENTED_EDGE('',*,*,#104,.F.);
#68=ORIENTED_EDGE('',*,*,#105,.T.);
#69=ORIENTED_EDGE('',*,*,#103,.T.);
#70=ORIENTED_EDGE('',*,*,#97,.T.);
#71=ORIENTED_EDGE('',*,*,#92,.F.);
#72=ORIENTED_EDGE('',*,*,#91,.F.);
#73=ORIENTED_EDGE('',*,*,#87,.T.);
#74=ORIENTED_EDGE('',*,*,#90,.F.);
#75=ORIENTED_EDGE('',*,*,#86,.T.);
#76=ORIENTED_EDGE('',*,*,#95,.F.);
#77=ORIENTED_EDGE('',*,*,#99,.F.);
#78=ORIENTED_EDGE('',*,*,#105,.F.);
#79=ORIENTED_EDGE('',*,*,#101,.F.);
#80=ORIENTED_EDGE('',*,*,#96,.F.);
#81=ORIENTED_EDGE('',*,*,#94,.F.);
#82=ORIENTED_EDGE('',*,*,#100,.F.);
#83=ORIENTED_EDGE('',*,*,#102,.F.);
#84=ORIENTED_EDGE('',*,*,#104,.T.);
#85=ORIENTED_EDGE('',*,*,#93,.F.);
#86=EDGE_CURVE('',#106,#106,#126,.T.);
#87=EDGE_CURVE('',#107,#107,#127,.T.);
#88=EDGE_CURVE('',#108,#108,#30,.T.);
#89=EDGE_CURVE('',#109,#109,#31,.T.);
#90=EDGE_CURVE('',#110,#110,#128,.T.);
#91=EDGE_CURVE('',#111,#111,#129,.T.);
#92=EDGE_CURVE('',#112,#112,#32,.T.);
#93=EDGE_CURVE('',#113,#113,#33,.T.);
#94=EDGE_CURVE('',#114,#114,#34,.T.);
#95=EDGE_CURVE('',#115,#115,#35,.F.);
#96=EDGE_CURVE('',#116,#116,#36,.F.);
#97=EDGE_CURVE('',#117,#117,#37,.T.);
#98=EDGE_CURVE('',#118,#118,#38,.T.);
#99=EDGE_CURVE('',#119,#119,#39,.T.);
#100=EDGE_CURVE('',#120,#120,#40,.T.);
#101=EDGE_CURVE('',#121,#121,#41,.F.);
#102=EDGE_CURVE('',#122,#122,#42,.F.);
#103=EDGE_CURVE('',#123,#123,#43,.T.);
#104=EDGE_CURVE('',#124,#124,#44,.T.);
#105=EDGE_CURVE('',#125,#125,#45,.T.);
#106=VERTEX_POINT('',#366);
#107=VERTEX_POINT('',#378);
#108=VERTEX_POINT('',#380);
#109=VERTEX_POINT('',#382);
#110=VERTEX_POINT('',#395);
#111=VERTEX_POINT('',#407);
#112=VERTEX_POINT('',#409);
#113=VERTEX_POINT('',#411);
#114=VERTEX_POINT('',#414);
#115=VERTEX_POINT('',#416);
#116=VERTEX_POINT('',#419);
#117=VERTEX_POINT('',#422);
#118=VERTEX_POINT('',#424);
#119=VERTEX_POINT('',#427);
#120=VERTEX_POINT('',#430);
#121=VERTEX_POINT('',#432);
#122=VERTEX_POINT('',#435);
#123=VERTEX_POINT('',#438);
#124=VERTEX_POINT('',#440);
#125=VERTEX_POINT('',#443);
#126=B_SPLINE_CURVE_WITH_KNOTS('',3,(#355,#356,#357,#358,#359,#360,#361,
#362,#363,#364,#365),.UNSPECIFIED.,.T.,.F.,(1,1,1,1,1,1,1,1,1,1,1,1,1,1,
1),(-0.0105682552671114,-0.00704550351140762,-0.00352275175570381,5.16515279406716E-18,
0.00352275175570381,0.00704550351140762,0.0105682552671114,0.0140910070228152,
0.017613758778519,0.0211365105342229,0.0246592622899267,0.0281820140456305,
0.0317047658013343,0.0352275175570381,0.0387502693127419),.UNSPECIFIED.);
#127=B_SPLINE_CURVE_WITH_KNOTS('',3,(#367,#368,#369,#370,#371,#372,#373,
#374,#375,#376,#377),.UNSPECIFIED.,.T.,.F.,(1,1,1,1,1,1,1,1,1,1,1,1,1,1,
1),(-0.0105682552671114,-0.00704550351140761,-0.00352275175570381,3.0016353422462E-18,
0.00352275175570381,0.00704550351140762,0.0105682552671114,0.0140910070228152,
0.017613758778519,0.0211365105342228,0.0246592622899267,0.0281820140456305,
0.0317047658013343,0.0352275175570381,0.0387502693127419),.UNSPECIFIED.);
#128=B_SPLINE_CURVE_WITH_KNOTS('',3,(#384,#385,#386,#387,#388,#389,#390,
#391,#392,#393,#394),.UNSPECIFIED.,.T.,.F.,(1,1,1,1,1,1,1,1,1,1,1,1,1,1,
1),(-0.0105576060148316,-0.00703840400988776,-0.00351920200494387,8.47452697690752E-18,
0.00351920200494389,0.00703840400988777,0.0105576060148317,0.0140768080197755,
0.0175960100247194,0.0211152120296633,0.0246344140346072,0.0281536160395511,
0.0316728180444949,0.0351920200494388,0.0387112220543827),.UNSPECIFIED.);
#129=B_SPLINE_CURVE_WITH_KNOTS('',3,(#396,#397,#398,#399,#400,#401,#402,
#403,#404,#405,#406),.UNSPECIFIED.,.T.,.F.,(1,1,1,1,1,1,1,1,1,1,1,1,1,1,
1),(-0.0105576060148317,-0.00703840400988777,-0.00351920200494388,2.17650924902839E-18,
0.00351920200494389,0.00703840400988778,0.0105576060148317,0.0140768080197756,
0.0175960100247194,0.0211152120296633,0.0246344140346072,0.0281536160395511,
0.031672818044495,0.0351920200494389,0.0387112220543828),.UNSPECIFIED.);
#130=EDGE_LOOP('',(#46));
#131=EDGE_LOOP('',(#47));
#132=EDGE_LOOP('',(#48));
#133=EDGE_LOOP('',(#49));
#134=EDGE_LOOP('',(#50));
#135=EDGE_LOOP('',(#51));
#136=EDGE_LOOP('',(#52));
#137=EDGE_LOOP('',(#53));
#138=EDGE_LOOP('',(#54));
#139=EDGE_LOOP('',(#55));
#140=EDGE_LOOP('',(#56));
#141=EDGE_LOOP('',(#57));
#142=EDGE_LOOP('',(#58));
#143=EDGE_LOOP('',(#59));
#144=EDGE_LOOP('',(#60));
#145=EDGE_LOOP('',(#61));
#146=EDGE_LOOP('',(#62));
#147=EDGE_LOOP('',(#63));
#148=EDGE_LOOP('',(#64));
#149=EDGE_LOOP('',(#65));
#150=EDGE_LOOP('',(#66));
#151=EDGE_LOOP('',(#67));
#152=EDGE_LOOP('',(#68));
#153=EDGE_LOOP('',(#69));
#154=EDGE_LOOP('',(#70));
#155=EDGE_LOOP('',(#71));
#156=EDGE_LOOP('',(#72));
#157=EDGE_LOOP('',(#73));
#158=EDGE_LOOP('',(#74));
#159=EDGE_LOOP('',(#75));
#160=EDGE_LOOP('',(#76));
#161=EDGE_LOOP('',(#77));
#162=EDGE_LOOP('',(#78));
#163=EDGE_LOOP('',(#79));
#164=EDGE_LOOP('',(#80));
#165=EDGE_LOOP('',(#81));
#166=EDGE_LOOP('',(#82));
#167=EDGE_LOOP('',(#83));
#168=EDGE_LOOP('',(#84));
#169=EDGE_LOOP('',(#85));
#170=FACE_BOUND('',#130,.T.);
#171=FACE_BOUND('',#131,.T.);
#172=FACE_BOUND('',#132,.T.);
#173=FACE_BOUND('',#133,.T.);
#174=FACE_BOUND('',#134,.T.);
#175=FACE_BOUND('',#135,.T.);
#176=FACE_BOUND('',#136,.T.);
#177=FACE_BOUND('',#137,.T.);
#178=FACE_BOUND('',#138,.T.);
#179=FACE_BOUND('',#139,.T.);
#180=FACE_BOUND('',#140,.T.);
#181=FACE_BOUND('',#141,.T.);
#182=FACE_BOUND('',#142,.T.);
#183=FACE_BOUND('',#143,.T.);
#184=FACE_BOUND('',#144,.T.);
#185=FACE_BOUND('',#145,.T.);
#186=FACE_BOUND('',#146,.T.);
#187=FACE_BOUND('',#147,.T.);
#188=FACE_BOUND('',#148,.T.);
#189=FACE_BOUND('',#149,.T.);
#190=FACE_BOUND('',#150,.T.);
#191=FACE_BOUND('',#151,.T.);
#192=FACE_BOUND('',#152,.T.);
#193=FACE_BOUND('',#153,.T.);
#194=FACE_BOUND('',#154,.T.);
#195=FACE_BOUND('',#155,.T.);
#196=FACE_BOUND('',#156,.T.);
#197=FACE_BOUND('',#157,.T.);
#198=FACE_BOUND('',#158,.T.);
#199=FACE_BOUND('',#159,.T.);
#200=FACE_BOUND('',#160,.T.);
#201=FACE_BOUND('',#161,.T.);
#202=FACE_BOUND('',#162,.T.);
#203=FACE_BOUND('',#163,.T.);
#204=FACE_BOUND('',#164,.T.);
#205=FACE_BOUND('',#165,.T.);
#206=FACE_BOUND('',#166,.T.);
#207=FACE_BOUND('',#167,.T.);
#208=FACE_BOUND('',#168,.T.);
#209=FACE_BOUND('',#169,.T.);
#210=CYLINDRICAL_SURFACE('',#249,27.5);
#211=CYLINDRICAL_SURFACE('',#252,43.5);
#212=CYLINDRICAL_SURFACE('',#255,36.);
#213=CYLINDRICAL_SURFACE('',#260,40.);
#214=CYLINDRICAL_SURFACE('',#265,36.);
#215=CYLINDRICAL_SURFACE('',#270,40.);
#216=CYLINDRICAL_SURFACE('',#276,4.5);
#217=CYLINDRICAL_SURFACE('',#277,4.5);
#218=ADVANCED_FACE('',(#170,#171,#172,#173),#210,.F.);
#219=ADVANCED_FACE('',(#174,#175,#176,#177),#211,.T.);
#220=ADVANCED_FACE('',(#178,#179),#212,.F.);
#221=ADVANCED_FACE('',(#180,#181),#24,.F.);
#222=ADVANCED_FACE('',(#182,#183),#213,.F.);
#223=ADVANCED_FACE('',(#184,#185),#25,.F.);
#224=ADVANCED_FACE('',(#186,#187),#214,.F.);
#225=ADVANCED_FACE('',(#188,#189),#26,.F.);
#226=ADVANCED_FACE('',(#190,#191),#215,.F.);
#227=ADVANCED_FACE('',(#192,#193),#27,.F.);
#228=ADVANCED_FACE('',(#194,#195),#28,.F.);
#229=ADVANCED_FACE('',(#196,#197),#216,.F.);
#230=ADVANCED_FACE('',(#198,#199),#217,.F.);
#231=ADVANCED_FACE('',(#200,#201),#22,.F.);
#232=ADVANCED_FACE('',(#202,#203),#23,.F.);
#233=ADVANCED_FACE('',(#204,#205),#20,.F.);
#234=ADVANCED_FACE('',(#206,#207),#21,.F.);
#235=ADVANCED_FACE('',(#208,#209),#29,.F.);
#236=CLOSED_SHELL('',(#218,#219,#220,#221,#222,#223,#224,#225,#226,#227,
#228,#229,#230,#231,#232,#233,#234,#235));
#237=STYLED_ITEM('',(#238),#245);
#238=PRESENTATION_STYLE_ASSIGNMENT((#239));
#239=SURFACE_STYLE_USAGE(.BOTH.,#240);
#240=SURFACE_SIDE_STYLE('',(#241));
#241=SURFACE_STYLE_FILL_AREA(#242);
#242=FILL_AREA_STYLE('',(#243));
#243=FILL_AREA_STYLE_COLOUR('',#244);
#244=COLOUR_RGB('',0.506983280181885,0.531564235687256,0.550000011920929);
#245=MANIFOLD_SOLID_BREP('',#236);
#246=SHAPE_DEFINITION_REPRESENTATION(#458,#247);
#247=SHAPE_REPRESENTATION('tube fourreau',(#248),#453);
#248=AXIS2_PLACEMENT_3D('',#353,#283,#284);
#249=AXIS2_PLACEMENT_3D('',#354,#285,#286);
#250=AXIS2_PLACEMENT_3D('',#379,#287,#288);
#251=AXIS2_PLACEMENT_3D('',#381,#289,#290);
#252=AXIS2_PLACEMENT_3D('',#383,#291,#292);
#253=AXIS2_PLACEMENT_3D('',#408,#293,#294);
#254=AXIS2_PLACEMENT_3D('',#410,#295,#296);
#255=AXIS2_PLACEMENT_3D('',#412,#297,#298);
#256=AXIS2_PLACEMENT_3D('',#413,#299,#300);
#257=AXIS2_PLACEMENT_3D('',#415,#301,#302);
#258=AXIS2_PLACEMENT_3D('',#417,#303,#304);
#259=AXIS2_PLACEMENT_3D('',#418,#305,#306);
#260=AXIS2_PLACEMENT_3D('',#420,#307,#308);
#261=AXIS2_PLACEMENT_3D('',#421,#309,#310);
#262=AXIS2_PLACEMENT_3D('',#423,#311,#312);
#263=AXIS2_PLACEMENT_3D('',#425,#313,#314);
#264=AXIS2_PLACEMENT_3D('',#426,#315,#316);
#265=AXIS2_PLACEMENT_3D('',#428,#317,#318);
#266=AXIS2_PLACEMENT_3D('',#429,#319,#320);
#267=AXIS2_PLACEMENT_3D('',#431,#321,#322);
#268=AXIS2_PLACEMENT_3D('',#433,#323,#324);
#269=AXIS2_PLACEMENT_3D('',#434,#325,#326);
#270=AXIS2_PLACEMENT_3D('',#436,#327,#328);
#271=AXIS2_PLACEMENT_3D('',#437,#329,#330);
#272=AXIS2_PLACEMENT_3D('',#439,#331,#332);
#273=AXIS2_PLACEMENT_3D('',#441,#333,#334);
#274=AXIS2_PLACEMENT_3D('',#442,#335,#336);
#275=AXIS2_PLACEMENT_3D('',#444,#337,#338);
#276=AXIS2_PLACEMENT_3D('',#445,#339,#340);
#277=AXIS2_PLACEMENT_3D('',#446,#341,#342);
#278=AXIS2_PLACEMENT_3D('',#447,#343,#344);
#279=AXIS2_PLACEMENT_3D('',#448,#345,#346);
#280=AXIS2_PLACEMENT_3D('',#449,#347,#348);
#281=AXIS2_PLACEMENT_3D('',#450,#349,#350);
#282=AXIS2_PLACEMENT_3D('',#451,#351,#352);
#283=DIRECTION('',(0.,0.,1.));
#284=DIRECTION('',(1.,0.,0.));
#285=DIRECTION('',(1.,0.,0.));
#286=DIRECTION('',(0.,0.,-1.));
#287=DIRECTION('',(-1.,6.12303176911189E-17,0.));
#288=DIRECTION('',(-6.12303176911189E-17,-1.,0.));
#289=DIRECTION('',(-1.,6.12303176911189E-17,0.));
#290=DIRECTION('',(-6.12303176911189E-17,-1.,0.));
#291=DIRECTION('',(1.,0.,0.));
#292=DIRECTION('',(0.,0.,-1.));
#293=DIRECTION('',(-1.,6.12303176911189E-17,0.));
#294=DIRECTION('',(-6.12303176911189E-17,-1.,0.));
#295=DIRECTION('',(1.,-6.12303176911189E-17,0.));
#296=DIRECTION('',(0.,0.,1.));
#297=DIRECTION('',(1.,-6.12303176911189E-17,0.));
#298=DIRECTION('',(6.12303176911189E-17,1.,0.));
#299=DIRECTION('',(-1.,6.12303176911189E-17,0.));
#300=DIRECTION('',(-6.12303176911189E-17,-1.,0.));
#301=DIRECTION('',(-1.,6.12303176911188E-17,0.));
#302=DIRECTION('',(-6.12303176911188E-17,-1.,0.));
#303=DIRECTION('',(-1.,6.12303176911189E-17,0.));
#304=DIRECTION('',(-6.12303176911189E-17,-1.,0.));
#305=DIRECTION('',(-1.,6.12303176911189E-17,0.));
#306=DIRECTION('',(-6.12303176911189E-17,-1.,0.));
#307=DIRECTION('',(1.,-6.12303176911189E-17,0.));
#308=DIRECTION('',(6.12303176911189E-17,1.,0.));
#309=DIRECTION('',(-1.,6.12303176911189E-17,0.));
#310=DIRECTION('',(-6.12303176911189E-17,-1.,0.));
#311=DIRECTION('',(-1.,6.12303176911189E-17,0.));
#312=DIRECTION('',(0.,0.,-1.));
#313=DIRECTION('',(-1.,6.12303176911189E-17,0.));
#314=DIRECTION('',(-6.12303176911189E-17,-1.,0.));
#315=DIRECTION('',(-1.,6.12303176911189E-17,0.));
#316=DIRECTION('',(-6.12303176911189E-17,-1.,0.));
#317=DIRECTION('',(-1.,6.12303176911189E-17,0.));
#318=DIRECTION('',(6.12303176911189E-17,1.,0.));
#319=DIRECTION('',(1.,-6.12303176911189E-17,0.));
#320=DIRECTION('',(6.12303176911189E-17,1.,0.));
#321=DIRECTION('',(1.,-6.1230317691113E-17,0.));
#322=DIRECTION('',(6.1230317691113E-17,1.,0.));
#323=DIRECTION('',(1.,-6.12303176911189E-17,0.));
#324=DIRECTION('',(-6.12303176911189E-17,-1.,0.));
#325=DIRECTION('',(1.,-6.12303176911189E-17,0.));
#326=DIRECTION('',(6.12303176911189E-17,1.,0.));
#327=DIRECTION('',(-1.,6.12303176911189E-17,0.));
#328=DIRECTION('',(6.12303176911189E-17,1.,0.));
#329=DIRECTION('',(-1.,6.12303176911189E-17,0.));
#330=DIRECTION('',(0.,0.,-1.));
#331=DIRECTION('',(1.,-6.12303176911189E-17,0.));
#332=DIRECTION('',(0.,0.,1.));
#333=DIRECTION('',(1.,-6.12303176911189E-17,0.));
#334=DIRECTION('',(-6.12303176911189E-17,-1.,0.));
#335=DIRECTION('',(1.,-6.12303176911189E-17,0.));
#336=DIRECTION('',(6.12303176911189E-17,1.,0.));
#337=DIRECTION('',(-1.,6.12303176911189E-17,0.));
#338=DIRECTION('',(-6.12303176911189E-17,-1.,0.));
#339=DIRECTION('',(0.,0.,-1.));
#340=DIRECTION('',(-1.,0.,0.));
#341=DIRECTION('',(0.,0.,-1.));
#342=DIRECTION('',(-1.,0.,0.));
#343=DIRECTION('',(1.,-6.12303176911188E-17,0.));
#344=DIRECTION('',(6.12303176911188E-17,1.,0.));
#345=DIRECTION('',(-1.,6.1230317691113E-17,0.));
#346=DIRECTION('',(-6.1230317691113E-17,-1.,0.));
#347=DIRECTION('',(-1.,6.12303176911189E-17,0.));
#348=DIRECTION('',(-6.12303176911189E-17,-1.,0.));
#349=DIRECTION('',(1.,-6.12303176911189E-17,0.));
#350=DIRECTION('',(6.12303176911189E-17,1.,0.));
#351=DIRECTION('',(1.,-6.12303176911189E-17,0.));
#352=DIRECTION('',(6.12303176911189E-17,1.,0.));
#353=CARTESIAN_POINT('',(0.,0.,0.));
#354=CARTESIAN_POINT('',(-237.,0.,-1.97127667724635E-17));
#355=CARTESIAN_POINT('',(-434.273219775404,3.53011613168295,-27.3154586223534));
#356=CARTESIAN_POINT('',(-435.738133439935,-0.000838770527130512,-27.5921873619557));
#357=CARTESIAN_POINT('',(-434.274246464856,-3.52676104957443,-27.3157919298237));
#358=CARTESIAN_POINT('',(-430.754332125523,-4.98643148069458,-27.0360942249989));
#359=CARTESIAN_POINT('',(-427.223916217437,-3.52750858363218,-27.3157515023258));
#360=CARTESIAN_POINT('',(-425.763999756448,-0.00129531027543309,-27.5919474772595));
#361=CARTESIAN_POINT('',(-427.220086808782,3.52216325935134,-27.3164582528524));
#362=CARTESIAN_POINT('',(-430.746188680499,4.98692792397121,-27.0360010495582));
#363=CARTESIAN_POINT('',(-434.273219775404,3.53011613168295,-27.3154586223534));
#364=CARTESIAN_POINT('',(-435.738133439935,-0.000838770527130512,-27.5921873619557));
#365=CARTESIAN_POINT('',(-434.274246464856,-3.52676104957443,-27.3157919298237));
#366=CARTESIAN_POINT('',(-435.25,5.31632278851811E-15,-27.5));
#367=CARTESIAN_POINT('',(-46.7732197754038,3.530116131683,-27.3154586223534));
#368=CARTESIAN_POINT('',(-48.2381334399352,-0.000838770527140649,-27.5921873619557));
#369=CARTESIAN_POINT('',(-46.7742464648555,-3.52676104957443,-27.3157919298237));
#370=CARTESIAN_POINT('',(-43.2543321255233,-4.98643148069459,-27.0360942249989));
#371=CARTESIAN_POINT('',(-39.723916217437,-3.52750858363216,-27.3157515023258));
#372=CARTESIAN_POINT('',(-38.2639997564479,-0.00129531027543813,-27.5919474772595));
#373=CARTESIAN_POINT('',(-39.7200868087824,3.52216325935134,-27.3164582528524));
#374=CARTESIAN_POINT('',(-43.2461886804987,4.9869279239712,-27.0360010495582));
#375=CARTESIAN_POINT('',(-46.7732197754038,3.530116131683,-27.3154586223534));
#376=CARTESIAN_POINT('',(-48.2381334399352,-0.000838770527140649,-27.5921873619557));
#377=CARTESIAN_POINT('',(-46.7742464648555,-3.52676104957443,-27.3157919298237));
#378=CARTESIAN_POINT('',(-47.75,-1.91716598058365E-15,-27.5));
#379=CARTESIAN_POINT('',(-28.25,0.,-1.97127667724635E-17));
#380=CARTESIAN_POINT('',(-28.25,-27.5,-1.97127667724635E-17));
#381=CARTESIAN_POINT('',(-445.75,2.55636576360421E-14,-1.97127667724635E-17));
#382=CARTESIAN_POINT('',(-445.75,-27.5,-1.97127667724635E-17));
#383=CARTESIAN_POINT('',(-237.,0.,3.61235835081436E-15));
#384=CARTESIAN_POINT('',(-434.273401184769,3.53020339086989,-43.383326304578));
#385=CARTESIAN_POINT('',(-435.738026635734,-0.000882036379463199,-43.5582813716489));
#386=CARTESIAN_POINT('',(-434.274492272295,-3.52667524535203,-43.3835482088265));
#387=CARTESIAN_POINT('',(-430.753912358535,-4.98627487854909,-43.2081684942003));
#388=CARTESIAN_POINT('',(-427.224648727023,-3.52822118939721,-43.3834700691147));
#389=CARTESIAN_POINT('',(-425.763788249693,-0.000898562190993418,-43.5581390449098));
#390=CARTESIAN_POINT('',(-427.220200106957,3.52186714831164,-43.3839735616513));
#391=CARTESIAN_POINT('',(-430.74521210114,4.98697934289829,-43.2080983061333));
#392=CARTESIAN_POINT('',(-434.273401184769,3.53020339086989,-43.383326304578));
#393=CARTESIAN_POINT('',(-435.738026635734,-0.000882036379463199,-43.5582813716489));
#394=CARTESIAN_POINT('',(-434.274492272295,-3.52667524535203,-43.3835482088265));
#395=CARTESIAN_POINT('',(-435.25,-8.72121544578101E-15,-43.5));
#396=CARTESIAN_POINT('',(-46.7734011847693,3.53020339086989,-43.383326304578));
#397=CARTESIAN_POINT('',(-48.238026635734,-0.000882036379463633,-43.5582813716488));
#398=CARTESIAN_POINT('',(-46.7744922722947,-3.52667524535203,-43.3835482088265));
#399=CARTESIAN_POINT('',(-43.2539123585353,-4.98627487854909,-43.2081684942003));
#400=CARTESIAN_POINT('',(-39.7246487270229,-3.5282211893972,-43.3834700691147));
#401=CARTESIAN_POINT('',(-38.2637882496925,-0.000898562191007903,-43.5581390449098));
#402=CARTESIAN_POINT('',(-39.7202001069566,3.52186714831165,-43.3839735616513));
#403=CARTESIAN_POINT('',(-43.2452121011399,4.98697934289829,-43.2080983061333));
#404=CARTESIAN_POINT('',(-46.7734011847693,3.53020339086989,-43.383326304578));
#405=CARTESIAN_POINT('',(-48.238026635734,-0.000882036379463633,-43.5582813716488));
#406=CARTESIAN_POINT('',(-46.7744922722947,-3.52667524535203,-43.3835482088265));
#407=CARTESIAN_POINT('',(-47.75,-1.06193136902995E-15,-43.5));
#408=CARTESIAN_POINT('',(-2.,0.,3.61235835081436E-15));
#409=CARTESIAN_POINT('',(-2.,-43.5,3.61235835081436E-15));
#410=CARTESIAN_POINT('',(-472.,2.89007099502081E-14,0.));
#411=CARTESIAN_POINT('',(-472.,2.89007099502081E-14,43.5));
#412=CARTESIAN_POINT('',(-28.25,1.72975647477411E-15,0.));
#413=CARTESIAN_POINT('',(-27.75,1.69914131592855E-15,0.));
#414=CARTESIAN_POINT('',(-27.75,-36.,0.));
#415=CARTESIAN_POINT('',(-6.,3.67381906146713E-16,0.));
#416=CARTESIAN_POINT('',(-6.,-36.,0.));
#417=CARTESIAN_POINT('',(-28.25,1.72975647477411E-15,0.));
#418=CARTESIAN_POINT('',(-28.25,1.72975647477411E-15,0.));
#419=CARTESIAN_POINT('',(-28.25,-35.5,0.));
#420=CARTESIAN_POINT('',(-5.,3.06151588455594E-16,0.));
#421=CARTESIAN_POINT('',(-2.,1.22460635382238E-16,0.));
#422=CARTESIAN_POINT('',(-2.,-40.,0.));
#423=CARTESIAN_POINT('',(-5.,3.06151588455594E-16,0.));
#424=CARTESIAN_POINT('',(-5.,3.06151588455594E-16,-40.));
#425=CARTESIAN_POINT('',(-5.,3.06151588455594E-16,0.));
#426=CARTESIAN_POINT('',(-5.,3.06151588455594E-16,0.));
#427=CARTESIAN_POINT('',(-5.,-37.,0.));
#428=CARTESIAN_POINT('',(-445.75,2.72934141108162E-14,0.));
#429=CARTESIAN_POINT('',(-446.25,2.73240292696618E-14,0.));
#430=CARTESIAN_POINT('',(-446.25,36.,0.));
#431=CARTESIAN_POINT('',(-468.,2.86557886794436E-14,0.));
#432=CARTESIAN_POINT('',(-468.,36.,0.));
#433=CARTESIAN_POINT('',(-445.75,2.72934141108162E-14,0.));
#434=CARTESIAN_POINT('',(-445.75,2.72934141108162E-14,0.));
#435=CARTESIAN_POINT('',(-445.75,35.5,0.));
#436=CARTESIAN_POINT('',(-469.,2.87170189971348E-14,0.));
#437=CARTESIAN_POINT('',(-469.,2.87170189971348E-14,0.));
#438=CARTESIAN_POINT('',(-469.,2.87170189971348E-14,-40.));
#439=CARTESIAN_POINT('',(-472.,2.89007099502081E-14,0.));
#440=CARTESIAN_POINT('',(-472.,2.89007099502081E-14,40.));
#441=CARTESIAN_POINT('',(-469.,2.87170189971348E-14,0.));
#442=CARTESIAN_POINT('',(-469.,2.87170189971348E-14,0.));
#443=CARTESIAN_POINT('',(-469.,37.,0.));
#444=CARTESIAN_POINT('',(-2.,1.22460635382238E-16,0.));
#445=CARTESIAN_POINT('',(-43.25,0.,385.599295074963));
#446=CARTESIAN_POINT('',(-430.75,-1.83697019872103E-15,385.599295074963));
#447=CARTESIAN_POINT('',(-5.,3.06151588455594E-16,0.));
#448=CARTESIAN_POINT('',(-468.,2.86557886794436E-14,0.));
#449=CARTESIAN_POINT('',(-27.75,1.69914131592855E-15,0.));
#450=CARTESIAN_POINT('',(-446.25,2.73240292696618E-14,0.));
#451=CARTESIAN_POINT('',(-472.,2.89007099502081E-14,0.));
#452=MECHANICAL_DESIGN_GEOMETRIC_PRESENTATION_REPRESENTATION('',(#237),
#453);
#453=(
GEOMETRIC_REPRESENTATION_CONTEXT(3)
GLOBAL_UNCERTAINTY_ASSIGNED_CONTEXT((#454))
GLOBAL_UNIT_ASSIGNED_CONTEXT((#457,#456,#455))
REPRESENTATION_CONTEXT('tube fourreau','TOP_LEVEL_ASSEMBLY_PART')
);
#454=UNCERTAINTY_MEASURE_WITH_UNIT(LENGTH_MEASURE(0.005),#457,
'DISTANCE_ACCURACY_VALUE','Maximum Tolerance applied to model');
#455=(
NAMED_UNIT(*)
SI_UNIT($,.STERADIAN.)
SOLID_ANGLE_UNIT()
);
#456=(
NAMED_UNIT(*)
PLANE_ANGLE_UNIT()
SI_UNIT($,.RADIAN.)
);
#457=(
LENGTH_UNIT()
NAMED_UNIT(*)
SI_UNIT(.MILLI.,.METRE.)
);
#458=PRODUCT_DEFINITION_SHAPE('','',#459);
#459=PRODUCT_DEFINITION('','',#461,#460);
#460=PRODUCT_DEFINITION_CONTEXT('',#467,'design');
#461=PRODUCT_DEFINITION_FORMATION_WITH_SPECIFIED_SOURCE('','',#463,
 .NOT_KNOWN.);
#462=PRODUCT_RELATED_PRODUCT_CATEGORY('','',(#463));
#463=PRODUCT('tube fourreau','tube fourreau','tube fourreau',(#465));
#464=PRODUCT_CATEGORY('','');
#465=PRODUCT_CONTEXT('',#467,'mechanical');
#466=APPLICATION_PROTOCOL_DEFINITION('international standard',
'automotive_design',2010,#467);
#467=APPLICATION_CONTEXT(
'core data for automotive mechanical design processes');
ENDSEC;
END-ISO-10303-21;
